  0
SECTION
  2
HEADER
  9
$ACADVER
  1
AC1014
  9
$HANDSEED
  5
FFFF
  9
$MEASUREMENT
 70
     1
  0
ENDSEC
  0
SECTION
  2
TABLES
  0
TABLE
  2
VPORT
  5
8
330
0
100
AcDbSymbolTable
 70
     4
  0
VPORT
  5
2E
330
8
100
AcDbSymbolTableRecord
100
AcDbViewportTableRecord
  2
*ACTIVE
 70
     0
 10
0.0
 20
0.0
 11
1.0
 21
1.0
 12
210.0
 22
148.5
 13
0.0
 23
0.0
 14
10.0
 24
10.0
 15
10.0
 25
10.0
 16
0.0
 26
0.0
 36
1.0
 17
0.0
 27
0.0
 37
0.0
 40
341.0
 41
1.24
 42
50.0
 43
0.0
 44
0.0
 50
0.0
 51
0.0
 71
     0
 72
   100
 73
     1
 74
     3
 75
     0
 76
     0
 77
     0
 78
     0
  0
ENDTAB
  0
TABLE
  2
LTYPE
  5
5
330
0
100
AcDbSymbolTable
 70
     1
  0
LTYPE
  5
14
330
5
100
AcDbSymbolTableRecord
100
AcDbLinetypeTableRecord
  2
BYBLOCK
 70
     0
  3

 72
    65
 73
     0
 40
0.0
  0
LTYPE
  5
15
330
5
100
AcDbSymbolTableRecord
100
AcDbLinetypeTableRecord
  2
BYLAYER
 70
     0
  3

 72
    65
 73
     0
 40
0.0
  0
LTYPE
  5
16
330
5
100
AcDbSymbolTableRecord
100
AcDbLinetypeTableRecord
  2
CONTINUOUS
 70
     0
  3
Solid line
 72
    65
 73
     0
 40
0.0
  0
ENDTAB
  0
TABLE
  2
LAYER
  5
2
100
AcDbSymbolTable
 70
1
  0
LAYER
  5
50
100
AcDbSymbolTableRecord
100
AcDbLayerTableRecord
  2
0
 70
0
  6
CONTINUOUS
  0
ENDTAB
  0
TABLE
  2
STYLE
  5
3
330
0
100
AcDbSymbolTable
 70
     1
  0
STYLE
  5
11
330
3
100
AcDbSymbolTableRecord
100
AcDbTextStyleTableRecord
  2
STANDARD
 70
     0
 40
0.0
 41
1.0
 50
0.0
 71
     0
 42
2.5
  3
txt
  4

  0
ENDTAB
  0
TABLE
  2
VIEW
  5
6
330
0
100
AcDbSymbolTable
 70
     0
  0
ENDTAB
  0
TABLE
  2
UCS
  5
7
330
0
100
AcDbSymbolTable
 70
     0
  0
ENDTAB
  0
TABLE
  2
APPID
  5
9
330
0
100
AcDbSymbolTable
 70
     2
  0
APPID
  5
12
330
9
100
AcDbSymbolTableRecord
100
AcDbRegAppTableRecord
  2
ACAD
 70
     0
  0
ENDTAB
  0
TABLE
  2
DIMSTYLE
  5
A
330
0
100
AcDbSymbolTable
 70
     1
  0
DIMSTYLE
105
27
330
A
100
AcDbSymbolTableRecord
100
AcDbDimStyleTableRecord
  2
ISO-25
 70
     0
  3

  4

  5

  6

  7

 40
1.0
 41
2.5
 42
0.625
 43
3.75
 44
1.25
 45
0.0
 46
0.0
 47
0.0
 48
0.0
140
2.5
141
2.5
142
0.0
143
0.03937007874016
144
1.0
145
0.0
146
1.0
147
0.625
 71
     0
 72
     0
 73
     0
 74
     0
 75
     0
 76
     0
 77
     1
 78
     8
170
     0
171
     3
172
     1
173
     0
174
     0
175
     0
176
     0
177
     0
178
     0
270
     2
271
     2
272
     2
273
     2
274
     3
340
11
275
     0
280
     0
281
     0
282
     0
283
     0
284
     8
285
     0
286
     0
287
     3
288
     0
  0
ENDTAB
  0
TABLE
  2
BLOCK_RECORD
  5
1
330
0
100
AcDbSymbolTable
 70
     1
  0
BLOCK_RECORD
  5
1F
330
1
100
AcDbSymbolTableRecord
100
AcDbBlockTableRecord
  2
*MODEL_SPACE
  0
BLOCK_RECORD
  5
1B
330
1
100
AcDbSymbolTableRecord
100
AcDbBlockTableRecord
  2
*PAPER_SPACE
  0
ENDTAB
  0
ENDSEC
  0
SECTION
  2
BLOCKS
  0
BLOCK
  5
20
330
1F
100
AcDbEntity
  8
0
100
AcDbBlockBegin
  2
*MODEL_SPACE
 70
     0
 10
0.0
 20
0.0
 30
0.0
  3
*MODEL_SPACE
  1

  0
ENDBLK
  5
21
330
1F
100
AcDbEntity
  8
0
100
AcDbBlockEnd
  0
BLOCK
  5
1C
330
1B
100
AcDbEntity
 67
     1
  8
0
100
AcDbBlockBegin
  2
*PAPER_SPACE
  1

  0
ENDBLK
  5
1D
330
1B
100
AcDbEntity
 67
     1
  8
0
100
AcDbBlockEnd
  0
ENDSEC
  0
SECTION
  2
ENTITIES
  0
SPLINE
  5
100
100
AcDbEntity
  8
0
 62
7
100
AcDbSpline
 70
8
 71
3
 72
8
 73
4
 74
0
 40
0
 40
0
 40
0
 40
0
 40
1
 40
1
 40
1
 40
1
 10
-47.275750
 20
-8.585821
 30
0.0
 10
-45.575615
 20
-7.881620
 30
0.0
 10
-42.113482
 20
-5.425355
 30
0.0
 10
-40.385802
 20
-3.697676
 30
0.0
  0
SPLINE
  5
101
100
AcDbEntity
  8
0
 62
7
100
AcDbSpline
 70
8
 71
3
 72
8
 73
4
 74
0
 40
0
 40
0
 40
0
 40
0
 40
1
 40
1
 40
1
 40
1
 10
-40.385802
 20
-3.697676
 30
0.0
 10
-37.490795
 20
-0.802668
 30
0.0
 10
-36.718438
 20
1.476248
 30
0.0
 10
-38.174845
 20
2.825976
 30
0.0
  0
SPLINE
  5
102
100
AcDbEntity
  8
0
 62
7
100
AcDbSpline
 70
8
 71
3
 72
8
 73
4
 74
0
 40
0
 40
0
 40
0
 40
0
 40
1
 40
1
 40
1
 40
1
 10
-38.174845
 20
2.825976
 30
0.0
 10
-39.654593
 20
4.197350
 30
0.0
 10
-42.919029
 20
4.107688
 30
0.0
 10
-45.909061
 20
2.613575
 30
0.0
  0
SPLINE
  5
103
100
AcDbEntity
  8
0
 62
7
100
AcDbSpline
 70
8
 71
3
 72
8
 73
4
 74
0
 40
0
 40
0
 40
0
 40
0
 40
1
 40
1
 40
1
 40
1
 10
-45.909061
 20
2.613575
 30
0.0
 10
-46.918005
 20
2.109385
 30
0.0
 10
-47.838755
 20
1.654556
 30
0.0
 10
-47.955172
 20
1.602796
 30
0.0
  0
SPLINE
  5
104
100
AcDbEntity
  8
0
 62
7
100
AcDbSpline
 70
8
 71
3
 72
8
 73
4
 74
0
 40
0
 40
0
 40
0
 40
0
 40
1
 40
1
 40
1
 40
1
 10
-47.955172
 20
1.602796
 30
0.0
 10
-48.071588
 20
1.551065
 30
0.0
 10
-48.166838
 20
5.691830
 30
0.0
 10
-48.166838
 20
10.804483
 30
0.0
  0
LWPOLYLINE
  5
105
100
AcDbEntity
  8
0
 62
7
100
AcDbPolyline
 90
3
 70
1
 10
-48.166838
 20
-35.872928
 30
0.0
 10
-48.166838
 20
-8.954939
 30
0.0
 10
-47.275750
 20
-8.585821
 30
0.0
  0
SPLINE
  5
106
100
AcDbEntity
  8
0
 62
7
100
AcDbSpline
 70
8
 71
3
 72
8
 73
4
 74
0
 40
0
 40
0
 40
0
 40
0
 40
1
 40
1
 40
1
 40
1
 10
-46.120727
 20
20.706475
 30
0.0
 10
-43.183358
 20
21.576792
 30
0.0
 10
-38.374122
 20
22.617317
 30
0.0
 10
-34.620172
 20
23.194687
 30
0.0
  0
SPLINE
  5
107
100
AcDbEntity
  8
0
 62
7
100
AcDbSpline
 70
8
 71
3
 72
8
 73
4
 74
0
 40
0
 40
0
 40
0
 40
0
 40
1
 40
1
 40
1
 40
1
 10
-34.620172
 20
23.194687
 30
0.0
 10
-32.177482
 20
23.570382
 30
0.0
 10
-29.629298
 20
23.695434
 30
0.0
 10
-24.319060
 20
23.700232
 30
0.0
  0
SPLINE
  5
108
100
AcDbEntity
  8
0
 62
7
100
AcDbSpline
 70
8
 71
3
 72
8
 73
4
 74
0
 40
0
 40
0
 40
0
 40
0
 40
1
 40
1
 40
1
 40
1
 10
-24.319060
 20
23.700232
 30
0.0
 10
-16.685034
 20
23.707005
 30
0.0
 10
-15.806927
 20
23.628378
 30
0.0
 10
-2.305727
 20
21.726652
 30
0.0
  0
SPLINE
  5
109
100
AcDbEntity
  8
0
 62
7
100
AcDbSpline
 70
8
 71
3
 72
8
 73
4
 74
0
 40
0
 40
0
 40
0
 40
0
 40
1
 40
1
 40
1
 40
1
 10
-2.305727
 20
21.726652
 30
0.0
 10
12.367910
 20
19.659741
 30
0.0
 10
14.122683
 20
19.515638
 30
0.0
 10
24.505384
 20
19.524726
 30
0.0
  0
SPLINE
  5
10a
100
AcDbEntity
  8
0
 62
7
100
AcDbSpline
 70
8
 71
3
 72
8
 73
4
 74
0
 40
0
 40
0
 40
0
 40
0
 40
1
 40
1
 40
1
 40
1
 10
24.505384
 20
19.524726
 30
0.0
 10
40.269104
 20
19.538555
 30
0.0
 10
47.640466
 20
20.429502
 30
0.0
 10
70.507606
 20
25.084899
 30
0.0
  0
SPLINE
  5
10b
100
AcDbEntity
  8
0
 62
7
100
AcDbSpline
 70
8
 71
3
 72
8
 73
4
 74
0
 40
0
 40
0
 40
0
 40
0
 40
1
 40
1
 40
1
 40
1
 10
70.507606
 20
25.084899
 30
0.0
 10
78.790348
 20
26.771148
 30
0.0
 10
81.309944
 20
27.072872
 30
0.0
 10
87.017606
 20
27.061894
 30
0.0
  0
SPLINE
  5
10c
100
AcDbEntity
  8
0
 62
7
100
AcDbSpline
 70
8
 71
3
 72
8
 73
4
 74
0
 40
0
 40
0
 40
0
 40
0
 40
1
 40
1
 40
1
 40
1
 10
87.017606
 20
27.061894
 30
0.0
 10
91.341646
 20
27.053427
 30
0.0
 10
92.696905
 20
26.946662
 30
0.0
 10
94.905463
 20
26.439622
 30
0.0
  0
SPLINE
  5
10d
100
AcDbEntity
  8
0
 62
7
100
AcDbSpline
 70
8
 71
3
 72
8
 73
4
 74
0
 40
0
 40
0
 40
0
 40
0
 40
1
 40
1
 40
1
 40
1
 10
94.905463
 20
26.439622
 30
0.0
 10
96.372172
 20
26.102874
 30
0.0
 10
97.667995
 20
25.731611
 30
0.0
 10
97.785033
 20
25.614545
 30
0.0
  0
SPLINE
  5
10e
100
AcDbEntity
  8
0
 62
7
100
AcDbSpline
 70
8
 71
3
 72
8
 73
4
 74
0
 40
0
 40
0
 40
0
 40
0
 40
1
 40
1
 40
1
 40
1
 10
97.785033
 20
25.614545
 30
0.0
 10
97.902099
 20
25.497508
 30
0.0
 10
97.622388
 20
24.842639
 30
0.0
 10
97.163467
 20
24.159351
 30
0.0
  0
SPLINE
  5
10f
100
AcDbEntity
  8
0
 62
7
100
AcDbSpline
 70
8
 71
3
 72
8
 73
4
 74
0
 40
0
 40
0
 40
0
 40
0
 40
1
 40
1
 40
1
 40
1
 10
97.163467
 20
24.159351
 30
0.0
 10
96.024220
 20
22.463026
 30
0.0
 10
95.673531
 20
20.975800
 30
0.0
 10
95.850682
 20
18.591784
 30
0.0
  0
SPLINE
  5
110
100
AcDbEntity
  8
0
 62
7
100
AcDbSpline
 70
8
 71
3
 72
8
 73
4
 74
0
 40
0
 40
0
 40
0
 40
0
 40
1
 40
1
 40
1
 40
1
 10
95.850682
 20
18.591784
 30
0.0
 10
96.014625
 20
16.385314
 30
0.0
 10
96.853897
 20
14.012954
 30
0.0
 10
98.335282
 20
11.568712
 30
0.0
  0
SPLINE
  5
111
100
AcDbEntity
  8
0
 62
7
100
AcDbSpline
 70
8
 71
3
 72
8
 73
4
 74
0
 40
0
 40
0
 40
0
 40
0
 40
1
 40
1
 40
1
 40
1
 10
98.335282
 20
11.568712
 30
0.0
 10
100.586935
 20
7.853482
 30
0.0
 10
105.776466
 20
2.701996
 30
0.0
 10
110.029498
 20
-0.039765
 30
0.0
  0
SPLINE
  5
112
100
AcDbEntity
  8
0
 62
7
100
AcDbSpline
 70
8
 71
3
 72
8
 73
4
 74
0
 40
0
 40
0
 40
0
 40
0
 40
1
 40
1
 40
1
 40
1
 10
110.029498
 20
-0.039765
 30
0.0
 10
112.341321
 20
-1.530096
 30
0.0
 10
112.275225
 20
-1.367536
 30
0.0
 10
111.611720
 20
-3.930989
 30
0.0
  0
SPLINE
  5
113
100
AcDbEntity
  8
0
 62
7
100
AcDbSpline
 70
8
 71
3
 72
8
 73
4
 74
0
 40
0
 40
0
 40
0
 40
0
 40
1
 40
1
 40
1
 40
1
 10
111.611720
 20
-3.930989
 30
0.0
 10
111.423930
 20
-4.656441
 30
0.0
 10
111.416564
 20
-5.532487
 30
0.0
 10
111.590554
 20
-6.449653
 30
0.0
  0
SPLINE
  5
114
100
AcDbEntity
  8
0
 62
7
100
AcDbSpline
 70
8
 71
3
 72
8
 73
4
 74
0
 40
0
 40
0
 40
0
 40
0
 40
1
 40
1
 40
1
 40
1
 10
111.590554
 20
-6.449653
 30
0.0
 10
112.490956
 20
-11.197477
 30
0.0
 10
118.001655
 20
-15.613408
 30
0.0
 10
126.810968
 20
-18.646338
 30
0.0
  0
SPLINE
  5
115
100
AcDbEntity
  8
0
 62
7
100
AcDbSpline
 70
8
 71
3
 72
8
 73
4
 74
0
 40
0
 40
0
 40
0
 40
0
 40
1
 40
1
 40
1
 40
1
 10
126.810968
 20
-18.646338
 30
0.0
 10
129.241211
 20
-19.483014
 30
0.0
 10
129.483894
 20
-19.630757
 30
0.0
 10
129.404590
 20
-20.225145
 30
0.0
  0
SPLINE
  5
116
100
AcDbEntity
  8
0
 62
7
100
AcDbSpline
 70
8
 71
3
 72
8
 73
4
 74
0
 40
0
 40
0
 40
0
 40
0
 40
1
 40
1
 40
1
 40
1
 10
129.404590
 20
-20.225145
 30
0.0
 10
129.356471
 20
-20.585797
 30
0.0
 10
129.247674
 20
-21.430319
 30
0.0
 10
129.162810
 20
-22.101838
 30
0.0
  0
SPLINE
  5
117
100
AcDbEntity
  8
0
 62
7
100
AcDbSpline
 70
8
 71
3
 72
8
 73
4
 74
0
 40
0
 40
0
 40
0
 40
0
 40
1
 40
1
 40
1
 40
1
 10
129.162810
 20
-22.101838
 30
0.0
 10
128.498741
 20
-27.356167
 30
0.0
 10
136.547945
 20
-31.814685
 30
0.0
 10
148.861498
 20
-33.013170
 30
0.0
  0
LWPOLYLINE
  5
118
100
AcDbEntity
  8
0
 62
7
100
AcDbPolyline
 90
3
 70
1
 10
-48.166838
 20
10.804483
 30
0.0
 10
-48.166838
 20
20.100205
 30
0.0
 10
-46.120727
 20
20.706475
 30
0.0
  0
SPLINE
  5
119
100
AcDbEntity
  8
0
 62
7
100
AcDbSpline
 70
8
 71
3
 72
8
 73
4
 74
0
 40
0
 40
0
 40
0
 40
0
 40
1
 40
1
 40
1
 40
1
 10
150.859208
 20
-34.716127
 30
0.0
 10
151.113885
 20
-37.787072
 30
0.0
 10
153.753735
 20
-40.483480
 30
0.0
 10
157.670246
 20
-41.673103
 30
0.0
  0
SPLINE
  5
11a
100
AcDbEntity
  8
0
 62
7
100
AcDbSpline
 70
8
 71
3
 72
8
 73
4
 74
0
 40
0
 40
0
 40
0
 40
0
 40
1
 40
1
 40
1
 40
1
 10
157.670246
 20
-41.673103
 30
0.0
 10
160.494246
 20
-42.530861
 30
0.0
 10
166.279260
 20
-42.288742
 30
0.0
 10
171.966534
 20
-41.074763
 30
0.0
  0
SPLINE
  5
11b
100
AcDbEntity
  8
0
 62
7
100
AcDbSpline
 70
8
 71
3
 72
8
 73
4
 74
0
 40
0
 40
0
 40
0
 40
0
 40
1
 40
1
 40
1
 40
1
 10
171.966534
 20
-41.074763
 30
0.0
 10
179.223227
 20
-39.525815
 30
0.0
 10
180.986684
 20
-39.242605
 30
0.0
 10
181.317237
 20
-39.573172
 30
0.0
  0
SPLINE
  5
11c
100
AcDbEntity
  8
0
 62
7
100
AcDbSpline
 70
8
 71
3
 72
8
 73
4
 74
0
 40
0
 40
0
 40
0
 40
0
 40
1
 40
1
 40
1
 40
1
 10
181.317237
 20
-39.573172
 30
0.0
 10
181.533405
 20
-39.789326
 30
0.0
 10
180.990186
 20
-40.188106
 30
0.0
 10
179.425383
 20
-40.961987
 30
0.0
  0
SPLINE
  5
11d
100
AcDbEntity
  8
0
 62
7
100
AcDbSpline
 70
8
 71
3
 72
8
 73
4
 74
0
 40
0
 40
0
 40
0
 40
0
 40
1
 40
1
 40
1
 40
1
 10
179.425383
 20
-40.961987
 30
0.0
 10
176.928958
 20
-42.196597
 30
0.0
 10
176.196450
 20
-43.010356
 30
0.0
 10
176.000201
 20
-44.767020
 30
0.0
  0
SPLINE
  5
11e
100
AcDbEntity
  8
0
 62
7
100
AcDbSpline
 70
8
 71
3
 72
8
 73
4
 74
0
 40
0
 40
0
 40
0
 40
0
 40
1
 40
1
 40
1
 40
1
 10
176.000201
 20
-44.767020
 30
0.0
 10
175.739388
 20
-47.101562
 30
0.0
 10
177.710688
 20
-48.402974
 30
0.0
 10
180.660384
 20
-47.843581
 30
0.0
  0
SPLINE
  5
11f
100
AcDbEntity
  8
0
 62
7
100
AcDbSpline
 70
8
 71
3
 72
8
 73
4
 74
0
 40
0
 40
0
 40
0
 40
0
 40
1
 40
1
 40
1
 40
1
 10
180.660384
 20
-47.843581
 30
0.0
 10
182.652966
 20
-47.465686
 30
0.0
 10
183.729294
 20
-46.975804
 30
0.0
 10
187.475441
 20
-44.741761
 30
0.0
  0
SPLINE
  5
120
100
AcDbEntity
  8
0
 62
7
100
AcDbSpline
 70
8
 71
3
 72
8
 73
4
 74
0
 40
0
 40
0
 40
0
 40
0
 40
1
 40
1
 40
1
 40
1
 10
187.475441
 20
-44.741761
 30
0.0
 10
191.739390
 20
-42.198911
 30
0.0
 10
193.764668
 20
-41.509809
 30
0.0
 10
196.351889
 20
-41.721504
 30
0.0
  0
SPLINE
  5
121
100
AcDbEntity
  8
0
 62
7
100
AcDbSpline
 70
8
 71
3
 72
8
 73
4
 74
0
 40
0
 40
0
 40
0
 40
0
 40
1
 40
1
 40
1
 40
1
 10
196.351889
 20
-41.721504
 30
0.0
 10
198.692457
 20
-41.913020
 30
0.0
 10
199.175700
 20
-42.250586
 30
0.0
 10
197.988326
 20
-42.864588
 30
0.0
  0
SPLINE
  5
122
100
AcDbEntity
  8
0
 62
7
100
AcDbSpline
 70
8
 71
3
 72
8
 73
4
 74
0
 40
0
 40
0
 40
0
 40
0
 40
1
 40
1
 40
1
 40
1
 10
197.988326
 20
-42.864588
 30
0.0
 10
196.903315
 20
-43.425674
 30
0.0
 10
195.955423
 20
-44.622127
 30
0.0
 10
195.955423
 20
-45.430581
 30
0.0
  0
SPLINE
  5
123
100
AcDbEntity
  8
0
 62
7
100
AcDbSpline
 70
8
 71
3
 72
8
 73
4
 74
0
 40
0
 40
0
 40
0
 40
0
 40
1
 40
1
 40
1
 40
1
 10
195.955423
 20
-45.430581
 30
0.0
 10
195.955423
 20
-46.471981
 30
0.0
 10
197.143525
 20
-47.894917
 30
0.0
 10
198.631912
 20
-48.636089
 30
0.0
  0
SPLINE
  5
124
100
AcDbEntity
  8
0
 62
7
100
AcDbSpline
 70
8
 71
3
 72
8
 73
4
 74
0
 40
0
 40
0
 40
0
 40
0
 40
1
 40
1
 40
1
 40
1
 10
198.631912
 20
-48.636089
 30
0.0
 10
199.742258
 20
-49.189019
 30
0.0
 10
200.603897
 20
-49.363291
 30
0.0
 10
202.724134
 20
-49.463819
 30
0.0
  0
SPLINE
  5
125
100
AcDbEntity
  8
0
 62
7
100
AcDbSpline
 70
8
 71
3
 72
8
 73
4
 74
0
 40
0
 40
0
 40
0
 40
0
 40
1
 40
1
 40
1
 40
1
 10
202.724134
 20
-49.463819
 30
0.0
 10
205.888979
 20
-49.613876
 30
0.0
 10
208.635831
 20
-49.158652
 30
0.0
 10
214.177697
 20
-47.565649
 30
0.0
  0
LWPOLYLINE
  5
126
100
AcDbEntity
  8
0
 62
7
100
AcDbPolyline
 90
3
 70
1
 10
148.861498
 20
-33.013170
 30
0.0
 10
150.733111
 20
-33.195345
 30
0.0
 10
150.859208
 20
-34.716127
 30
0.0
  0
SPLINE
  5
127
100
AcDbEntity
  8
0
 62
7
100
AcDbSpline
 70
8
 71
3
 72
8
 73
4
 74
0
 40
0
 40
0
 40
0
 40
0
 40
1
 40
1
 40
1
 40
1
 10
219.728226
 20
-47.038937
 30
0.0
 10
229.536269
 20
-50.147700
 30
0.0
 10
235.866291
 20
-50.322000
 30
0.0
 10
238.628880
 20
-47.559383
 30
0.0
  0
SPLINE
  5
128
100
AcDbEntity
  8
0
 62
7
100
AcDbSpline
 70
8
 71
3
 72
8
 73
4
 74
0
 40
0
 40
0
 40
0
 40
0
 40
1
 40
1
 40
1
 40
1
 10
238.628880
 20
-47.559383
 30
0.0
 10
240.173708
 20
-46.014584
 30
0.0
 10
240.115372
 20
-45.013965
 30
0.0
 10
238.386620
 20
-43.404084
 30
0.0
  0
SPLINE
  5
129
100
AcDbEntity
  8
0
 62
7
100
AcDbSpline
 70
8
 71
3
 72
8
 73
4
 74
0
 40
0
 40
0
 40
0
 40
0
 40
1
 40
1
 40
1
 40
1
 10
238.386620
 20
-43.404084
 30
0.0
 10
237.664329
 20
-42.731436
 30
0.0
 10
237.132001
 20
-42.122457
 30
0.0
 10
237.203686
 20
-42.050801
 30
0.0
  0
SPLINE
  5
12a
100
AcDbEntity
  8
0
 62
7
100
AcDbSpline
 70
8
 71
3
 72
8
 73
4
 74
0
 40
0
 40
0
 40
0
 40
0
 40
1
 40
1
 40
1
 40
1
 10
237.203686
 20
-42.050801
 30
0.0
 10
237.275370
 20
-41.979116
 30
0.0
 10
238.229958
 20
-41.837187
 30
0.0
 10
239.325009
 20
-41.735417
 30
0.0
  0
SPLINE
  5
12b
100
AcDbEntity
  8
0
 62
7
100
AcDbSpline
 70
8
 71
3
 72
8
 73
4
 74
0
 40
0
 40
0
 40
0
 40
0
 40
1
 40
1
 40
1
 40
1
 10
239.325009
 20
-41.735417
 30
0.0
 10
241.988481
 20
-41.487880
 30
0.0
 10
244.245977
 20
-42.220162
 30
0.0
 10
248.247069
 20
-44.629606
 30
0.0
  0
SPLINE
  5
12c
100
AcDbEntity
  8
0
 62
7
100
AcDbSpline
 70
8
 71
3
 72
8
 73
4
 74
0
 40
0
 40
0
 40
0
 40
0
 40
1
 40
1
 40
1
 40
1
 10
248.247069
 20
-44.629606
 30
0.0
 10
251.900775
 20
-46.829839
 30
0.0
 10
253.288885
 20
-47.466532
 30
0.0
 10
255.238335
 20
-47.836215
 30
0.0
  0
SPLINE
  5
12d
100
AcDbEntity
  8
0
 62
7
100
AcDbSpline
 70
8
 71
3
 72
8
 73
4
 74
0
 40
0
 40
0
 40
0
 40
0
 40
1
 40
1
 40
1
 40
1
 10
255.238335
 20
-47.836215
 30
0.0
 10
258.193371
 20
-48.396624
 30
0.0
 10
260.199322
 20
-47.112936
 30
0.0
 10
259.943854
 20
-44.825017
 30
0.0
  0
SPLINE
  5
12e
100
AcDbEntity
  8
0
 62
7
100
AcDbSpline
 70
8
 71
3
 72
8
 73
4
 74
0
 40
0
 40
0
 40
0
 40
0
 40
1
 40
1
 40
1
 40
1
 10
259.943854
 20
-44.825017
 30
0.0
 10
259.744662
 20
-43.041316
 30
0.0
 10
258.860826
 20
-42.051817
 30
0.0
 10
256.441194
 20
-40.903596
 30
0.0
  0
SPLINE
  5
12f
100
AcDbEntity
  8
0
 62
7
100
AcDbSpline
 70
8
 71
3
 72
8
 73
4
 74
0
 40
0
 40
0
 40
0
 40
0
 40
1
 40
1
 40
1
 40
1
 10
256.441194
 20
-40.903596
 30
0.0
 10
254.863656
 20
-40.154973
 30
0.0
 10
254.386786
 20
-39.806626
 30
0.0
 10
254.620127
 20
-39.573285
 30
0.0
  0
SPLINE
  5
130
100
AcDbEntity
  8
0
 62
7
100
AcDbSpline
 70
8
 71
3
 72
8
 73
4
 74
0
 40
0
 40
0
 40
0
 40
0
 40
1
 40
1
 40
1
 40
1
 10
254.620127
 20
-39.573285
 30
0.0
 10
254.853468
 20
-39.339972
 30
0.0
 10
256.728863
 20
-39.620557
 30
0.0
 10
261.781939
 20
-40.644882
 30
0.0
  0
SPLINE
  5
131
100
AcDbEntity
  8
0
 62
7
100
AcDbSpline
 70
8
 71
3
 72
8
 73
4
 74
0
 40
0
 40
0
 40
0
 40
0
 40
1
 40
1
 40
1
 40
1
 10
261.781939
 20
-40.644882
 30
0.0
 10
267.550674
 20
-41.814242
 30
0.0
 10
269.241919
 20
-42.049164
 30
0.0
 10
272.532376
 20
-42.138233
 30
0.0
  0
SPLINE
  5
132
100
AcDbEntity
  8
0
 62
7
100
AcDbSpline
 70
8
 71
3
 72
8
 73
4
 74
0
 40
0
 40
0
 40
0
 40
0
 40
1
 40
1
 40
1
 40
1
 10
272.532376
 20
-42.138233
 30
0.0
 10
275.977152
 20
-42.231479
 30
0.0
 10
276.667553
 20
-42.169842
 30
0.0
 10
278.393031
 20
-41.615021
 30
0.0
  0
SPLINE
  5
133
100
AcDbEntity
  8
0
 62
7
100
AcDbSpline
 70
8
 71
3
 72
8
 73
4
 74
0
 40
0
 40
0
 40
0
 40
0
 40
1
 40
1
 40
1
 40
1
 10
278.393031
 20
-41.615021
 30
0.0
 10
282.314057
 20
-40.354222
 30
0.0
 10
284.730359
 20
-37.868945
 30
0.0
 10
285.050456
 20
-34.767492
 30
0.0
  0
LWPOLYLINE
  5
134
100
AcDbEntity
  8
0
 62
7
100
AcDbPolyline
 90
3
 70
1
 10
214.177697
 20
-47.565649
 30
0.0
 10
217.959917
 20
-46.478472
 30
0.0
 10
219.728226
 20
-47.038937
 30
0.0
  0
SPLINE
  5
135
100
AcDbEntity
  8
0
 62
7
100
AcDbSpline
 70
8
 71
3
 72
8
 73
4
 74
0
 40
0
 40
0
 40
0
 40
0
 40
1
 40
1
 40
1
 40
1
 10
287.080226
 20
-33.012719
 30
0.0
 10
299.682069
 20
-31.786463
 30
0.0
 10
307.649259
 20
-27.214576
 30
0.0
 10
306.736778
 20
-21.732974
 30
0.0
  0
SPLINE
  5
136
100
AcDbEntity
  8
0
 62
7
100
AcDbSpline
 70
8
 71
3
 72
8
 73
4
 74
0
 40
0
 40
0
 40
0
 40
0
 40
1
 40
1
 40
1
 40
1
 10
306.736778
 20
-21.732974
 30
0.0
 10
306.357754
 20
-19.456061
 30
0.0
 10
306.261742
 20
-19.600587
 30
0.0
 10
308.703190
 20
-18.772604
 30
0.0
  0
SPLINE
  5
137
100
AcDbEntity
  8
0
 62
7
100
AcDbSpline
 70
8
 71
3
 72
8
 73
4
 74
0
 40
0
 40
0
 40
0
 40
0
 40
1
 40
1
 40
1
 40
1
 10
308.703190
 20
-18.772604
 30
0.0
 10
316.544226
 20
-16.113450
 30
0.0
 10
321.768752
 20
-12.519970
 30
0.0
 10
323.692040
 20
-8.463111
 30
0.0
  0
SPLINE
  5
138
100
AcDbEntity
  8
0
 62
7
100
AcDbSpline
 70
8
 71
3
 72
8
 73
4
 74
0
 40
0
 40
0
 40
0
 40
0
 40
1
 40
1
 40
1
 40
1
 10
323.692040
 20
-8.463111
 30
0.0
 10
324.475235
 20
-6.811066
 30
0.0
 10
324.609770
 20
-3.966577
 30
0.0
 10
323.963792
 20
-2.717405
 30
0.0
  0
SPLINE
  5
139
100
AcDbEntity
  8
0
 62
7
100
AcDbSpline
 70
8
 71
3
 72
8
 73
4
 74
0
 40
0
 40
0
 40
0
 40
0
 40
1
 40
1
 40
1
 40
1
 10
323.963792
 20
-2.717405
 30
0.0
 10
323.742304
 20
-2.289076
 30
0.0
 10
323.647054
 20
-1.811330
 30
0.0
 10
323.752125
 20
-1.655713
 30
0.0
  0
SPLINE
  5
13a
100
AcDbEntity
  8
0
 62
7
100
AcDbSpline
 70
8
 71
3
 72
8
 73
4
 74
0
 40
0
 40
0
 40
0
 40
0
 40
1
 40
1
 40
1
 40
1
 10
323.752125
 20
-1.655713
 30
0.0
 10
323.857225
 20
-1.500124
 30
0.0
 10
325.148843
 20
-0.555131
 30
0.0
 10
326.622382
 20
0.444246
 30
0.0
  0
SPLINE
  5
13b
100
AcDbEntity
  8
0
 62
7
100
AcDbSpline
 70
8
 71
3
 72
8
 73
4
 74
0
 40
0
 40
0
 40
0
 40
0
 40
1
 40
1
 40
1
 40
1
 10
326.622382
 20
0.444246
 30
0.0
 10
331.476096
 20
3.736086
 30
0.0
 10
337.034886
 20
9.867138
 30
0.0
 10
338.815567
 20
13.892643
 30
0.0
  0
SPLINE
  5
13c
100
AcDbEntity
  8
0
 62
7
100
AcDbSpline
 70
8
 71
3
 72
8
 73
4
 74
0
 40
0
 40
0
 40
0
 40
0
 40
1
 40
1
 40
1
 40
1
 10
338.815567
 20
13.892643
 30
0.0
 10
340.676512
 20
18.099617
 30
0.0
 10
340.542824
 20
22.161641
 30
0.0
 10
338.465527
 20
24.527566
 30
0.0
  0
SPLINE
  5
13d
100
AcDbEntity
  8
0
 62
7
100
AcDbSpline
 70
8
 71
3
 72
8
 73
4
 74
0
 40
0
 40
0
 40
0
 40
0
 40
1
 40
1
 40
1
 40
1
 10
338.465527
 20
24.527566
 30
0.0
 10
338.006521
 20
25.050327
 30
0.0
 10
337.630968
 20
25.672881
 30
0.0
 10
337.630968
 20
25.910992
 30
0.0
  0
SPLINE
  5
13e
100
AcDbEntity
  8
0
 62
7
100
AcDbSpline
 70
8
 71
3
 72
8
 73
4
 74
0
 40
0
 40
0
 40
0
 40
0
 40
1
 40
1
 40
1
 40
1
 10
337.630968
 20
25.910992
 30
0.0
 10
337.630968
 20
26.617196
 30
0.0
 10
339.611208
 20
27.958316
 30
0.0
 10
341.643236
 20
28.628312
 30
0.0
  0
SPLINE
  5
13f
100
AcDbEntity
  8
0
 62
7
100
AcDbSpline
 70
8
 71
3
 72
8
 73
4
 74
0
 40
0
 40
0
 40
0
 40
0
 40
1
 40
1
 40
1
 40
1
 10
341.643236
 20
28.628312
 30
0.0
 10
344.518290
 20
29.576240
 30
0.0
 10
348.100904
 20
30.073329
 30
0.0
 10
352.165412
 20
30.088174
 30
0.0
  0
SPLINE
  5
140
100
AcDbEntity
  8
0
 62
7
100
AcDbSpline
 70
8
 71
3
 72
8
 73
4
 74
0
 40
0
 40
0
 40
0
 40
0
 40
1
 40
1
 40
1
 40
1
 10
352.165412
 20
30.088174
 30
0.0
 10
357.572508
 20
30.107930
 30
0.0
 10
361.401868
 20
29.592976
 30
0.0
 10
371.497634
 20
27.488557
 30
0.0
  0
SPLINE
  5
141
100
AcDbEntity
  8
0
 62
7
100
AcDbSpline
 70
8
 71
3
 72
8
 73
4
 74
0
 40
0
 40
0
 40
0
 40
0
 40
1
 40
1
 40
1
 40
1
 10
371.497634
 20
27.488557
 30
0.0
 10
382.211128
 20
25.255389
 30
0.0
 10
390.857853
 20
23.879838
 30
0.0
 10
399.719856
 20
22.998882
 30
0.0
  0
SPLINE
  5
142
100
AcDbEntity
  8
0
 62
7
100
AcDbSpline
 70
8
 71
3
 72
8
 73
4
 74
0
 40
0
 40
0
 40
0
 40
0
 40
1
 40
1
 40
1
 40
1
 10
399.719856
 20
22.998882
 30
0.0
 10
401.349690
 20
22.836858
 30
0.0
 10
406.683690
 20
22.627703
 30
0.0
 10
411.573190
 20
22.534118
 30
0.0
  0
SPLINE
  5
143
100
AcDbEntity
  8
0
 62
7
100
AcDbSpline
 70
8
 71
3
 72
8
 73
4
 74
0
 40
0
 40
0
 40
0
 40
0
 40
1
 40
1
 40
1
 40
1
 10
411.573190
 20
22.534118
 30
0.0
 10
423.436542
 20
22.307042
 30
0.0
 10
426.530826
 20
22.541456
 30
0.0
 10
443.746523
 20
24.970260
 30
0.0
  0
SPLINE
  5
144
100
AcDbEntity
  8
0
 62
7
100
AcDbSpline
 70
8
 71
3
 72
8
 73
4
 74
0
 40
0
 40
0
 40
0
 40
0
 40
1
 40
1
 40
1
 40
1
 10
443.746523
 20
24.970260
 30
0.0
 10
453.767670
 20
26.384109
 30
0.0
 10
458.091455
 20
26.775156
 30
0.0
 10
463.643190
 20
26.769766
 30
0.0
  0
SPLINE
  5
145
100
AcDbEntity
  8
0
 62
7
100
AcDbSpline
 70
8
 71
3
 72
8
 73
4
 74
0
 40
0
 40
0
 40
0
 40
0
 40
1
 40
1
 40
1
 40
1
 10
463.643190
 20
26.769766
 30
0.0
 10
472.996599
 20
26.760734
 30
0.0
 10
482.731911
 20
24.992330
 30
0.0
 10
490.804426
 20
21.836126
 30
0.0
  0
LWPOLYLINE
  5
146
100
AcDbEntity
  8
0
 62
7
100
AcDbPolyline
 90
3
 70
1
 10
285.050456
 20
-34.767492
 30
0.0
 10
285.212790
 20
-33.194442
 30
0.0
 10
287.080226
 20
-33.012719
 30
0.0
  0
SPLINE
  5
147
100
AcDbEntity
  8
0
 62
7
100
AcDbSpline
 70
8
 71
3
 72
8
 73
4
 74
0
 40
0
 40
0
 40
0
 40
0
 40
1
 40
1
 40
1
 40
1
 10
493.699856
 20
10.001024
 30
0.0
 10
493.699856
 20
4.114377
 30
0.0
 10
493.620044
 20
-0.702000
 30
0.0
 10
493.522508
 20
-0.702000
 30
0.0
  0
SPLINE
  5
148
100
AcDbEntity
  8
0
 62
7
100
AcDbSpline
 70
8
 71
3
 72
8
 73
4
 74
0
 40
0
 40
0
 40
0
 40
0
 40
1
 40
1
 40
1
 40
1
 10
493.522508
 20
-0.702000
 30
0.0
 10
493.424972
 20
-0.702000
 30
0.0
 10
492.481870
 20
0.112381
 30
0.0
 10
491.426754
 20
1.107722
 30
0.0
  0
SPLINE
  5
149
100
AcDbEntity
  8
0
 62
7
100
AcDbSpline
 70
8
 71
3
 72
8
 73
4
 74
0
 40
0
 40
0
 40
0
 40
0
 40
1
 40
1
 40
1
 40
1
 10
491.426754
 20
1.107722
 30
0.0
 10
489.097602
 20
3.304907
 30
0.0
 10
486.469521
 20
5.124817
 30
0.0
 10
484.386523
 20
5.982914
 30
0.0
  0
SPLINE
  5
14a
100
AcDbEntity
  8
0
 62
7
100
AcDbSpline
 70
8
 71
3
 72
8
 73
4
 74
0
 40
0
 40
0
 40
0
 40
0
 40
1
 40
1
 40
1
 40
1
 10
484.386523
 20
5.982914
 30
0.0
 10
481.262408
 20
7.269932
 30
0.0
 10
477.346800
 20
6.651639
 30
0.0
 10
476.881529
 20
4.797834
 30
0.0
  0
SPLINE
  5
14b
100
AcDbEntity
  8
0
 62
7
100
AcDbSpline
 70
8
 71
3
 72
8
 73
4
 74
0
 40
0
 40
0
 40
0
 40
0
 40
1
 40
1
 40
1
 40
1
 10
476.881529
 20
4.797834
 30
0.0
 10
476.256124
 20
2.306010
 30
0.0
 10
480.997683
 20
-2.804047
 30
0.0
 10
486.503190
 20
-5.571603
 30
0.0
  0
SPLINE
  5
14c
100
AcDbEntity
  8
0
 62
7
100
AcDbSpline
 70
8
 71
3
 72
8
 73
4
 74
0
 40
0
 40
0
 40
0
 40
0
 40
1
 40
1
 40
1
 40
1
 10
486.503190
 20
-5.571603
 30
0.0
 10
487.943708
 20
-6.295729
 30
0.0
 10
491.525870
 20
-7.586303
 30
0.0
 10
492.923745
 20
-7.884809
 30
0.0
  0
LWPOLYLINE
  5
14d
100
AcDbEntity
  8
0
 62
7
100
AcDbPolyline
 90
3
 70
1
 10
490.804426
 20
21.836126
 30
0.0
 10
493.699856
 20
20.704076
 30
0.0
 10
493.699856
 20
10.001024
 30
0.0
  0
SPLINE
  5
14e
100
AcDbEntity
  8
0
 62
7
100
AcDbSpline
 70
8
 71
3
 72
8
 73
4
 74
0
 40
0
 40
0
 40
0
 40
0
 40
1
 40
1
 40
1
 40
1
 10
-16.471787
 20
0.788642
 30
0.0
 10
-14.503710
 20
1.689806
 30
0.0
 10
-11.574017
 20
4.411811
 30
0.0
 10
-10.554490
 20
6.286472
 30
0.0
  0
SPLINE
  5
14f
100
AcDbEntity
  8
0
 62
7
100
AcDbSpline
 70
8
 71
3
 72
8
 73
4
 74
0
 40
0
 40
0
 40
0
 40
0
 40
1
 40
1
 40
1
 40
1
 10
-10.554490
 20
6.286472
 30
0.0
 10
-10.154553
 20
7.021858
 30
0.0
 10
-9.673166
 20
8.236627
 30
0.0
 10
-9.484755
 20
8.985927
 30
0.0
  0
SPLINE
  5
150
100
AcDbEntity
  8
0
 62
7
100
AcDbSpline
 70
8
 71
3
 72
8
 73
4
 74
0
 40
0
 40
0
 40
0
 40
0
 40
1
 40
1
 40
1
 40
1
 10
-9.484755
 20
8.985927
 30
0.0
 10
-9.079455
 20
10.597755
 30
0.0
 10
-8.897591
 20
10.692751
 30
0.0
 10
-5.395693
 20
11.122237
 30
0.0
  0
SPLINE
  5
151
100
AcDbEntity
  8
0
 62
7
100
AcDbSpline
 70
8
 71
3
 72
8
 73
4
 74
0
 40
0
 40
0
 40
0
 40
0
 40
1
 40
1
 40
1
 40
1
 10
-5.395693
 20
11.122237
 30
0.0
 10
-0.175062
 20
11.762486
 30
0.0
 10
4.993161
 20
11.500668
 30
0.0
 10
17.308718
 20
9.972012
 30
0.0
  0
SPLINE
  5
152
100
AcDbEntity
  8
0
 62
7
100
AcDbSpline
 70
8
 71
3
 72
8
 73
4
 74
0
 40
0
 40
0
 40
0
 40
0
 40
1
 40
1
 40
1
 40
1
 10
17.308718
 20
9.972012
 30
0.0
 10
23.575829
 20
9.194123
 30
0.0
 10
25.416708
 20
9.076323
 30
0.0
 10
31.560939
 20
9.060152
 30
0.0
  0
SPLINE
  5
153
100
AcDbEntity
  8
0
 62
7
100
AcDbSpline
 70
8
 71
3
 72
8
 73
4
 74
0
 40
0
 40
0
 40
0
 40
0
 40
1
 40
1
 40
1
 40
1
 10
31.560939
 20
9.060152
 30
0.0
 10
37.216390
 20
9.045194
 30
0.0
 10
39.148512
 20
9.141912
 30
0.0
 10
41.297606
 20
9.547211
 30
0.0
  0
SPLINE
  5
154
100
AcDbEntity
  8
0
 62
7
100
AcDbSpline
 70
8
 71
3
 72
8
 73
4
 74
0
 40
0
 40
0
 40
0
 40
0
 40
1
 40
1
 40
1
 40
1
 10
41.297606
 20
9.547211
 30
0.0
 10
50.026316
 20
11.193357
 30
0.0
 10
55.492819
 20
13.080464
 30
0.0
 10
65.231066
 20
17.809266
 30
0.0
  0
SPLINE
  5
155
100
AcDbEntity
  8
0
 62
7
100
AcDbSpline
 70
8
 71
3
 72
8
 73
4
 74
0
 40
0
 40
0
 40
0
 40
0
 40
1
 40
1
 40
1
 40
1
 10
65.231066
 20
17.809266
 30
0.0
 10
74.236806
 20
22.182384
 30
0.0
 10
77.312322
 20
23.286889
 30
0.0
 10
81.736128
 20
23.736639
 30
0.0
  0
SPLINE
  5
156
100
AcDbEntity
  8
0
 62
7
100
AcDbSpline
 70
8
 71
3
 72
8
 73
4
 74
0
 40
0
 40
0
 40
0
 40
0
 40
1
 40
1
 40
1
 40
1
 10
81.736128
 20
23.736639
 30
0.0
 10
82.909382
 20
23.855934
 30
0.0
 10
83.611918
 20
24.049510
 30
0.0
 10
83.549631
 20
24.236341
 30
0.0
  0
SPLINE
  5
157
100
AcDbEntity
  8
0
 62
7
100
AcDbSpline
 70
8
 71
3
 72
8
 73
4
 74
0
 40
0
 40
0
 40
0
 40
0
 40
1
 40
1
 40
1
 40
1
 10
83.549631
 20
24.236341
 30
0.0
 10
83.385688
 20
24.728198
 30
0.0
 10
82.233121
 20
24.873740
 30
0.0
 10
80.212269
 20
24.657812
 30
0.0
  0
SPLINE
  5
158
100
AcDbEntity
  8
0
 62
7
100
AcDbSpline
 70
8
 71
3
 72
8
 73
4
 74
0
 40
0
 40
0
 40
0
 40
0
 40
1
 40
1
 40
1
 40
1
 10
80.212269
 20
24.657812
 30
0.0
 10
77.127834
 20
24.328261
 30
0.0
 10
74.820159
 20
23.633120
 30
0.0
 10
67.685384
 20
20.884332
 30
0.0
  0
SPLINE
  5
159
100
AcDbEntity
  8
0
 62
7
100
AcDbSpline
 70
8
 71
3
 72
8
 73
4
 74
0
 40
0
 40
0
 40
0
 40
0
 40
1
 40
1
 40
1
 40
1
 10
67.685384
 20
20.884332
 30
0.0
 10
55.085149
 20
16.029912
 30
0.0
 10
48.623361
 20
14.319645
 30
0.0
 10
37.769828
 20
12.966446
 30
0.0
  0
SPLINE
  5
15a
100
AcDbEntity
  8
0
 62
7
100
AcDbSpline
 70
8
 71
3
 72
8
 73
4
 74
0
 40
0
 40
0
 40
0
 40
0
 40
1
 40
1
 40
1
 40
1
 10
37.769828
 20
12.966446
 30
0.0
 10
32.404050
 20
12.297438
 30
0.0
 10
19.250830
 20
12.151388
 30
0.0
 10
8.983162
 20
12.646801
 30
0.0
  0
SPLINE
  5
15b
100
AcDbEntity
  8
0
 62
7
100
AcDbSpline
 70
8
 71
3
 72
8
 73
4
 74
0
 40
0
 40
0
 40
0
 40
0
 40
1
 40
1
 40
1
 40
1
 10
8.983162
 20
12.646801
 30
0.0
 10
0.583580
 20
13.052072
 30
0.0
 10
-4.155637
 20
12.952589
 30
0.0
 10
-7.385727
 20
12.303196
 30
0.0
  0
SPLINE
  5
15c
100
AcDbEntity
  8
0
 62
7
100
AcDbSpline
 70
8
 71
3
 72
8
 73
4
 74
0
 40
0
 40
0
 40
0
 40
0
 40
1
 40
1
 40
1
 40
1
 10
-7.385727
 20
12.303196
 30
0.0
 10
-8.937102
 20
11.991284
 30
0.0
 10
-8.874280
 20
11.953296
 30
0.0
 10
-10.149077
 20
13.973556
 30
0.0
  0
SPLINE
  5
15d
100
AcDbEntity
  8
0
 62
7
100
AcDbSpline
 70
8
 71
3
 72
8
 73
4
 74
0
 40
0
 40
0
 40
0
 40
0
 40
1
 40
1
 40
1
 40
1
 10
-10.149077
 20
13.973556
 30
0.0
 10
-10.555111
 20
14.616966
 30
0.0
 10
-11.361956
 20
15.255748
 30
0.0
 10
-12.463525
 20
15.805856
 30
0.0
  0
SPLINE
  5
15e
100
AcDbEntity
  8
0
 62
7
100
AcDbSpline
 70
8
 71
3
 72
8
 73
4
 74
0
 40
0
 40
0
 40
0
 40
0
 40
1
 40
1
 40
1
 40
1
 10
-12.463525
 20
15.805856
 30
0.0
 10
-13.961025
 20
16.553660
 30
0.0
 10
-14.501113
 20
16.662231
 30
0.0
 10
-17.179713
 20
16.753925
 30
0.0
  0
SPLINE
  5
15f
100
AcDbEntity
  8
0
 62
7
100
AcDbSpline
 70
8
 71
3
 72
8
 73
4
 74
0
 40
0
 40
0
 40
0
 40
0
 40
1
 40
1
 40
1
 40
1
 10
-17.179713
 20
16.753925
 30
0.0
 10
-19.643626
 20
16.838253
 30
0.0
 10
-20.562344
 20
16.748845
 30
0.0
 10
-22.132515
 20
16.271917
 30
0.0
  0
SPLINE
  5
160
100
AcDbEntity
  8
0
 62
7
100
AcDbSpline
 70
8
 71
3
 72
8
 73
4
 74
0
 40
0
 40
0
 40
0
 40
0
 40
1
 40
1
 40
1
 40
1
 10
-22.132515
 20
16.271917
 30
0.0
 10
-27.211273
 20
14.729291
 30
0.0
 10
-30.570734
 20
10.761049
 30
0.0
 10
-30.331777
 20
6.586841
 30
0.0
  0
SPLINE
  5
161
100
AcDbEntity
  8
0
 62
7
100
AcDbSpline
 70
8
 71
3
 72
8
 73
4
 74
0
 40
0
 40
0
 40
0
 40
0
 40
1
 40
1
 40
1
 40
1
 10
-30.331777
 20
6.586841
 30
0.0
 10
-30.260403
 20
5.339814
 30
0.0
 10
-30.156178
 20
5.083556
 30
0.0
 10
-29.720371
 20
5.083556
 30
0.0
  0
SPLINE
  5
162
100
AcDbEntity
  8
0
 62
7
100
AcDbSpline
 70
8
 71
3
 72
8
 73
4
 74
0
 40
0
 40
0
 40
0
 40
0
 40
1
 40
1
 40
1
 40
1
 10
-29.720371
 20
5.083556
 30
0.0
 10
-29.341346
 20
5.083556
 30
0.0
 10
-29.035107
 20
5.515864
 30
0.0
 10
-28.620833
 20
6.635778
 30
0.0
  0
SPLINE
  5
163
100
AcDbEntity
  8
0
 62
7
100
AcDbSpline
 70
8
 71
3
 72
8
 73
4
 74
0
 40
0
 40
0
 40
0
 40
0
 40
1
 40
1
 40
1
 40
1
 10
-28.620833
 20
6.635778
 30
0.0
 10
-26.686763
 20
11.864030
 30
0.0
 10
-20.979722
 20
15.517904
 30
0.0
 10
-15.540989
 20
15.010017
 30
0.0
  0
SPLINE
  5
164
100
AcDbEntity
  8
0
 62
7
100
AcDbSpline
 70
8
 71
3
 72
8
 73
4
 74
0
 40
0
 40
0
 40
0
 40
0
 40
1
 40
1
 40
1
 40
1
 10
-15.540989
 20
15.010017
 30
0.0
 10
-13.551577
 20
14.824258
 30
0.0
 10
-12.844779
 20
14.540315
 30
0.0
 10
-11.689616
 20
13.462931
 30
0.0
  0
SPLINE
  5
165
100
AcDbEntity
  8
0
 62
7
100
AcDbSpline
 70
8
 71
3
 72
8
 73
4
 74
0
 40
0
 40
0
 40
0
 40
0
 40
1
 40
1
 40
1
 40
1
 10
-11.689616
 20
13.462931
 30
0.0
 10
-10.420011
 20
12.278755
 30
0.0
 10
-10.642571
 20
11.603736
 30
0.0
 10
-12.536282
 20
10.895217
 30
0.0
  0
SPLINE
  5
166
100
AcDbEntity
  8
0
 62
7
100
AcDbSpline
 70
8
 71
3
 72
8
 73
4
 74
0
 40
0
 40
0
 40
0
 40
0
 40
1
 40
1
 40
1
 40
1
 10
-12.536282
 20
10.895217
 30
0.0
 10
-18.078337
 20
8.821730
 30
0.0
 10
-22.296910
 20
4.927515
 30
0.0
 10
-22.310908
 20
1.872178
 30
0.0
  0
SPLINE
  5
167
100
AcDbEntity
  8
0
 62
7
100
AcDbSpline
 70
8
 71
3
 72
8
 73
4
 74
0
 40
0
 40
0
 40
0
 40
0
 40
1
 40
1
 40
1
 40
1
 10
-22.310908
 20
1.872178
 30
0.0
 10
-22.320786
 20
-0.264866
 30
0.0
 10
-19.795885
 20
-0.733383
 30
0.0
 10
-16.471787
 20
0.788642
 30
0.0
  0
LWPOLYLINE
  5
168
100
AcDbEntity
  8
0
 62
7
100
AcDbPolyline
 90
8
 70
1
 10
492.923745
 20
-7.884809
 30
0.0
 10
493.699856
 20
-8.050530
 30
0.0
 10
493.699856
 20
-35.420723
 30
0.0
 10
493.699856
 20
-62.790917
 30
0.0
 10
222.766534
 20
-62.790917
 30
0.0
 10
-48.166810
 20
-62.790917
 30
0.0
 10
-48.166810
 20
-35.872928
 30
0.0
 10
-48.166838
 20
-35.872928
 30
0.0
  0
SPLINE
  5
169
100
AcDbEntity
  8
0
 62
7
100
AcDbSpline
 70
8
 71
3
 72
8
 73
4
 74
0
 40
0
 40
0
 40
0
 40
0
 40
1
 40
1
 40
1
 40
1
 10
-20.606765
 20
1.411563
 30
0.0
 10
-21.186704
 20
1.991501
 30
0.0
 10
-21.187861
 20
2.217251
 30
0.0
 10
-20.617208
 20
3.419997
 30
0.0
  0
SPLINE
  5
16a
100
AcDbEntity
  8
0
 62
7
100
AcDbSpline
 70
8
 71
3
 72
8
 73
4
 74
0
 40
0
 40
0
 40
0
 40
0
 40
1
 40
1
 40
1
 40
1
 10
-20.617208
 20
3.419997
 30
0.0
 10
-19.899263
 20
4.932906
 30
0.0
 10
-17.329770
 20
7.064671
 30
0.0
 10
-14.541923
 20
8.460260
 30
0.0
  0
SPLINE
  5
16b
100
AcDbEntity
  8
0
 62
7
100
AcDbSpline
 70
8
 71
3
 72
8
 73
4
 74
0
 40
0
 40
0
 40
0
 40
0
 40
1
 40
1
 40
1
 40
1
 10
-14.541923
 20
8.460260
 30
0.0
 10
-10.730286
 20
10.368365
 30
0.0
 10
-10.206002
 20
10.142079
 30
0.0
 10
-11.663284
 20
7.217720
 30
0.0
  0
SPLINE
  5
16c
100
AcDbEntity
  8
0
 62
7
100
AcDbSpline
 70
8
 71
3
 72
8
 73
4
 74
0
 40
0
 40
0
 40
0
 40
0
 40
1
 40
1
 40
1
 40
1
 10
-11.663284
 20
7.217720
 30
0.0
 10
-13.534023
 20
3.463629
 30
0.0
 10
-19.066933
 20
-0.128355
 30
0.0
 10
-20.606822
 20
1.411563
 30
0.0
  0
LWPOLYLINE
  5
16d
100
AcDbEntity
  8
0
 62
7
100
AcDbPolyline
 90
2
 70
1
 10
-16.471787
 20
0.788642
 30
0.0
 10
-16.471787
 20
0.788642
 30
0.0
  0
SPLINE
  5
16e
100
AcDbEntity
  8
0
 62
7
100
AcDbSpline
 70
8
 71
3
 72
8
 73
4
 74
0
 40
0
 40
0
 40
0
 40
0
 40
1
 40
1
 40
1
 40
1
 10
460.537729
 20
3.089402
 30
0.0
 10
463.715749
 20
4.417258
 30
0.0
 10
460.252826
 20
9.853676
 30
0.0
 10
454.461570
 20
12.628287
 30
0.0
  0
SPLINE
  5
16f
100
AcDbEntity
  8
0
 62
7
100
AcDbSpline
 70
8
 71
3
 72
8
 73
4
 74
0
 40
0
 40
0
 40
0
 40
0
 40
1
 40
1
 40
1
 40
1
 10
454.461570
 20
12.628287
 30
0.0
 10
452.992123
 20
13.332291
 30
0.0
 10
451.440578
 20
14.047272
 30
0.0
 10
451.013717
 20
14.217114
 30
0.0
  0
SPLINE
  5
170
100
AcDbEntity
  8
0
 62
7
100
AcDbSpline
 70
8
 71
3
 72
8
 73
4
 74
0
 40
0
 40
0
 40
0
 40
0
 40
1
 40
1
 40
1
 40
1
 10
451.013717
 20
14.217114
 30
0.0
 10
450.538991
 20
14.405977
 30
0.0
 10
450.237606
 20
14.738999
 30
0.0
 10
450.237606
 20
15.074674
 30
0.0
  0
SPLINE
  5
171
100
AcDbEntity
  8
0
 62
7
100
AcDbSpline
 70
8
 71
3
 72
8
 73
4
 74
0
 40
0
 40
0
 40
0
 40
0
 40
1
 40
1
 40
1
 40
1
 10
450.237606
 20
15.074674
 30
0.0
 10
450.237606
 20
15.903815
 30
0.0
 10
451.810656
 20
17.305951
 30
0.0
 10
453.145200
 20
17.666377
 30
0.0
  0
SPLINE
  5
172
100
AcDbEntity
  8
0
 62
7
100
AcDbSpline
 70
8
 71
3
 72
8
 73
4
 74
0
 40
0
 40
0
 40
0
 40
0
 40
1
 40
1
 40
1
 40
1
 10
453.145200
 20
17.666377
 30
0.0
 10
454.862128
 20
18.130040
 30
0.0
 10
458.532117
 20
17.841637
 30
0.0
 10
460.489102
 20
17.089261
 30
0.0
  0
SPLINE
  5
173
100
AcDbEntity
  8
0
 62
7
100
AcDbSpline
 70
8
 71
3
 72
8
 73
4
 74
0
 40
0
 40
0
 40
0
 40
0
 40
1
 40
1
 40
1
 40
1
 10
460.489102
 20
17.089261
 30
0.0
 10
463.811535
 20
15.811923
 30
0.0
 10
466.757230
 20
12.919908
 30
0.0
 10
467.895714
 20
9.817636
 30
0.0
  0
SPLINE
  5
174
100
AcDbEntity
  8
0
 62
7
100
AcDbSpline
 70
8
 71
3
 72
8
 73
4
 74
0
 40
0
 40
0
 40
0
 40
0
 40
1
 40
1
 40
1
 40
1
 10
467.895714
 20
9.817636
 30
0.0
 10
468.167664
 20
9.076549
 30
0.0
 10
468.568109
 20
8.279723
 30
0.0
 10
468.785589
 20
8.046889
 30
0.0
  0
SPLINE
  5
175
100
AcDbEntity
  8
0
 62
7
100
AcDbSpline
 70
8
 71
3
 72
8
 73
4
 74
0
 40
0
 40
0
 40
0
 40
0
 40
1
 40
1
 40
1
 40
1
 10
468.785589
 20
8.046889
 30
0.0
 10
469.135347
 20
7.672437
 30
0.0
 10
469.229920
 20
7.688721
 30
0.0
 10
469.604824
 20
8.188000
 30
0.0
  0
SPLINE
  5
176
100
AcDbEntity
  8
0
 62
7
100
AcDbSpline
 70
8
 71
3
 72
8
 73
4
 74
0
 40
0
 40
0
 40
0
 40
0
 40
1
 40
1
 40
1
 40
1
 10
469.604824
 20
8.188000
 30
0.0
 10
469.908692
 20
8.592679
 30
0.0
 10
469.979474
 20
9.111883
 30
0.0
 10
469.854929
 20
10.022445
 30
0.0
  0
SPLINE
  5
177
100
AcDbEntity
  8
0
 62
7
100
AcDbSpline
 70
8
 71
3
 72
8
 73
4
 74
0
 40
0
 40
0
 40
0
 40
0
 40
1
 40
1
 40
1
 40
1
 10
469.854929
 20
10.022445
 30
0.0
 10
469.513102
 20
12.521240
 30
0.0
 10
468.854875
 20
13.951514
 30
0.0
 10
467.247901
 20
15.687238
 30
0.0
  0
SPLINE
  5
178
100
AcDbEntity
  8
0
 62
7
100
AcDbSpline
 70
8
 71
3
 72
8
 73
4
 74
0
 40
0
 40
0
 40
0
 40
0
 40
1
 40
1
 40
1
 40
1
 10
467.247901
 20
15.687238
 30
0.0
 10
464.568173
 20
18.581652
 30
0.0
 10
460.317822
 20
20.153969
 30
0.0
 10
456.078957
 20
19.818858
 30
0.0
  0
SPLINE
  5
179
100
AcDbEntity
  8
0
 62
7
100
AcDbSpline
 70
8
 71
3
 72
8
 73
4
 74
0
 40
0
 40
0
 40
0
 40
0
 40
1
 40
1
 40
1
 40
1
 10
456.078957
 20
19.818858
 30
0.0
 10
452.506560
 20
19.536466
 30
0.0
 10
450.177775
 20
18.326834
 30
0.0
 10
449.085829
 20
16.186460
 30
0.0
  0
SPLINE
  5
17a
100
AcDbEntity
  8
0
 62
7
100
AcDbSpline
 70
8
 71
3
 72
8
 73
4
 74
0
 40
0
 40
0
 40
0
 40
0
 40
1
 40
1
 40
1
 40
1
 10
449.085829
 20
16.186460
 30
0.0
 10
448.535016
 20
15.106763
 30
0.0
 10
448.447894
 20
15.053366
 30
0.0
 10
447.465648
 20
15.192982
 30
0.0
  0
SPLINE
  5
17b
100
AcDbEntity
  8
0
 62
7
100
AcDbSpline
 70
8
 71
3
 72
8
 73
4
 74
0
 40
0
 40
0
 40
0
 40
0
 40
1
 40
1
 40
1
 40
1
 10
447.465648
 20
15.192982
 30
0.0
 10
442.083783
 20
15.958086
 30
0.0
 10
439.473904
 20
16.030617
 30
0.0
 10
431.328717
 20
15.641376
 30
0.0
  0
SPLINE
  5
17c
100
AcDbEntity
  8
0
 62
7
100
AcDbSpline
 70
8
 71
3
 72
8
 73
4
 74
0
 40
0
 40
0
 40
0
 40
0
 40
1
 40
1
 40
1
 40
1
 10
431.328717
 20
15.641376
 30
0.0
 10
404.198921
 20
14.344989
 30
0.0
 10
391.572270
 20
16.032875
 30
0.0
 10
372.626495
 20
23.488452
 30
0.0
  0
SPLINE
  5
17d
100
AcDbEntity
  8
0
 62
7
100
AcDbSpline
 70
8
 71
3
 72
8
 73
4
 74
0
 40
0
 40
0
 40
0
 40
0
 40
1
 40
1
 40
1
 40
1
 10
372.626495
 20
23.488452
 30
0.0
 10
366.199251
 20
26.017728
 30
0.0
 10
364.411458
 20
26.620865
 30
0.0
 10
361.478717
 20
27.249318
 30
0.0
  0
SPLINE
  5
17e
100
AcDbEntity
  8
0
 62
7
100
AcDbSpline
 70
8
 71
3
 72
8
 73
4
 74
0
 40
0
 40
0
 40
0
 40
0
 40
1
 40
1
 40
1
 40
1
 10
361.478717
 20
27.249318
 30
0.0
 10
358.761820
 20
27.831514
 30
0.0
 10
356.640807
 20
27.947140
 30
0.0
 10
356.009787
 20
27.547457
 30
0.0
  0
SPLINE
  5
17f
100
AcDbEntity
  8
0
 62
7
100
AcDbSpline
 70
8
 71
3
 72
8
 73
4
 74
0
 40
0
 40
0
 40
0
 40
0
 40
1
 40
1
 40
1
 40
1
 10
356.009787
 20
27.547457
 30
0.0
 10
355.333526
 20
27.119128
 30
0.0
 10
355.962599
 20
26.673556
 30
0.0
 10
357.243578
 20
26.673556
 30
0.0
  0
SPLINE
  5
180
100
AcDbEntity
  8
0
 62
7
100
AcDbSpline
 70
8
 71
3
 72
8
 73
4
 74
0
 40
0
 40
0
 40
0
 40
0
 40
1
 40
1
 40
1
 40
1
 10
357.243578
 20
26.673556
 30
0.0
 10
359.721489
 20
26.673556
 30
0.0
 10
364.312426
 20
25.395259
 30
0.0
 10
368.110939
 20
23.647626
 30
0.0
  0
SPLINE
  5
181
100
AcDbEntity
  8
0
 62
7
100
AcDbSpline
 70
8
 71
3
 72
8
 73
4
 74
0
 40
0
 40
0
 40
0
 40
0
 40
1
 40
1
 40
1
 40
1
 10
368.110939
 20
23.647626
 30
0.0
 10
369.119884
 20
23.183427
 30
0.0
 10
372.612384
 20
21.529407
 30
0.0
 10
375.872050
 20
19.971992
 30
0.0
  0
SPLINE
  5
182
100
AcDbEntity
  8
0
 62
7
100
AcDbSpline
 70
8
 71
3
 72
8
 73
4
 74
0
 40
0
 40
0
 40
0
 40
0
 40
1
 40
1
 40
1
 40
1
 10
375.872050
 20
19.971992
 30
0.0
 10
379.131717
 20
18.414605
 30
0.0
 10
383.232547
 20
16.616228
 30
0.0
 10
384.984978
 20
15.975640
 30
0.0
  0
SPLINE
  5
183
100
AcDbEntity
  8
0
 62
7
100
AcDbSpline
 70
8
 71
3
 72
8
 73
4
 74
0
 40
0
 40
0
 40
0
 40
0
 40
1
 40
1
 40
1
 40
1
 10
384.984978
 20
15.975640
 30
0.0
 10
388.571288
 20
14.664690
 30
0.0
 10
394.445180
 20
13.144472
 30
0.0
 10
398.873162
 20
12.381230
 30
0.0
  0
SPLINE
  5
184
100
AcDbEntity
  8
0
 62
7
100
AcDbSpline
 70
8
 71
3
 72
8
 73
4
 74
0
 40
0
 40
0
 40
0
 40
0
 40
1
 40
1
 40
1
 40
1
 10
398.873162
 20
12.381230
 30
0.0
 10
403.081292
 20
11.655891
 30
0.0
 10
411.687433
 20
11.722947
 30
0.0
 10
418.487606
 20
12.534082
 30
0.0
  0
SPLINE
  5
185
100
AcDbEntity
  8
0
 62
7
100
AcDbSpline
 70
8
 71
3
 72
8
 73
4
 74
0
 40
0
 40
0
 40
0
 40
0
 40
1
 40
1
 40
1
 40
1
 10
418.487606
 20
12.534082
 30
0.0
 10
434.657613
 20
14.462845
 30
0.0
 10
440.406480
 20
14.775434
 30
0.0
 10
445.520854
 20
14.004092
 30
0.0
  0
SPLINE
  5
186
100
AcDbEntity
  8
0
 62
7
100
AcDbSpline
 70
8
 71
3
 72
8
 73
4
 74
0
 40
0
 40
0
 40
0
 40
0
 40
1
 40
1
 40
1
 40
1
 10
445.520854
 20
14.004092
 30
0.0
 10
448.125652
 20
13.611211
 30
0.0
 10
448.826495
 20
13.221095
 30
0.0
 10
448.826495
 20
12.164032
 30
0.0
  0
SPLINE
  5
187
100
AcDbEntity
  8
0
 62
7
100
AcDbSpline
 70
8
 71
3
 72
8
 73
4
 74
0
 40
0
 40
0
 40
0
 40
0
 40
1
 40
1
 40
1
 40
1
 10
448.826495
 20
12.164032
 30
0.0
 10
448.826495
 20
11.060825
 30
0.0
 10
450.470355
 20
8.174002
 30
0.0
 10
452.007930
 20
6.577048
 30
0.0
  0
SPLINE
  5
188
100
AcDbEntity
  8
0
 62
7
100
AcDbSpline
 70
8
 71
3
 72
8
 73
4
 74
0
 40
0
 40
0
 40
0
 40
0
 40
1
 40
1
 40
1
 40
1
 10
452.007930
 20
6.577048
 30
0.0
 10
453.685882
 20
4.834297
 30
0.0
 10
455.673432
 20
3.578013
 30
0.0
 10
457.555431
 20
3.070550
 30
0.0
  0
SPLINE
  5
189
100
AcDbEntity
  8
0
 62
7
100
AcDbSpline
 70
8
 71
3
 72
8
 73
4
 74
0
 40
0
 40
0
 40
0
 40
0
 40
1
 40
1
 40
1
 40
1
 10
457.555431
 20
3.070550
 30
0.0
 10
459.250740
 20
2.613462
 30
0.0
 10
459.400938
 20
2.614422
 30
0.0
 10
460.537729
 20
3.089458
 30
0.0
  0
LWPOLYLINE
  5
18a
100
AcDbEntity
  8
0
 62
7
100
AcDbPolyline
 90
2
 70
1
 10
-20.606822
 20
1.411563
 30
0.0
 10
-20.606765
 20
1.411563
 30
0.0
  0
SPLINE
  5
18b
100
AcDbEntity
  8
0
 62
7
100
AcDbSpline
 70
8
 71
3
 72
8
 73
4
 74
0
 40
0
 40
0
 40
0
 40
0
 40
1
 40
1
 40
1
 40
1
 10
456.480954
 20
4.715595
 30
0.0
 10
453.755167
 20
6.051832
 30
0.0
 10
450.237606
 20
10.356455
 30
0.0
 10
450.237606
 20
12.355886
 30
0.0
  0
SPLINE
  5
18c
100
AcDbEntity
  8
0
 62
7
100
AcDbSpline
 70
8
 71
3
 72
8
 73
4
 74
0
 40
0
 40
0
 40
0
 40
0
 40
1
 40
1
 40
1
 40
1
 10
450.237606
 20
12.355886
 30
0.0
 10
450.237606
 20
13.067030
 30
0.0
 10
451.019587
 20
12.886182
 30
0.0
 10
453.793493
 20
11.533576
 30
0.0
  0
SPLINE
  5
18d
100
AcDbEntity
  8
0
 62
7
100
AcDbSpline
 70
8
 71
3
 72
8
 73
4
 74
0
 40
0
 40
0
 40
0
 40
0
 40
1
 40
1
 40
1
 40
1
 10
453.793493
 20
11.533576
 30
0.0
 10
457.697219
 20
9.630043
 30
0.0
 10
461.055438
 20
6.085134
 30
0.0
 10
460.227765
 20
4.741644
 30
0.0
  0
SPLINE
  5
18e
100
AcDbEntity
  8
0
 62
7
100
AcDbSpline
 70
8
 71
3
 72
8
 73
4
 74
0
 40
0
 40
0
 40
0
 40
0
 40
1
 40
1
 40
1
 40
1
 10
460.227765
 20
4.741644
 30
0.0
 10
459.769605
 20
3.997960
 30
0.0
 10
457.970354
 20
3.985458
 30
0.0
 10
456.480954
 20
4.715679
 30
0.0
  0
LWPOLYLINE
  5
18f
100
AcDbEntity
  8
0
 62
7
100
AcDbPolyline
 90
2
 70
1
 10
460.537729
 20
3.089458
 30
0.0
 10
460.537729
 20
3.089402
 30
0.0
  0
SPLINE
  5
190
100
AcDbEntity
  8
0
 62
7
100
AcDbSpline
 70
8
 71
3
 72
8
 73
4
 74
0
 40
0
 40
0
 40
0
 40
0
 40
1
 40
1
 40
1
 40
1
 10
200.980582
 20
-47.156172
 30
0.0
 10
198.782364
 20
-46.564381
 30
0.0
 10
198.184129
 20
-45.635503
 30
0.0
 10
199.332108
 20
-44.596586
 30
0.0
  0
SPLINE
  5
191
100
AcDbEntity
  8
0
 62
7
100
AcDbSpline
 70
8
 71
3
 72
8
 73
4
 74
0
 40
0
 40
0
 40
0
 40
0
 40
1
 40
1
 40
1
 40
1
 10
199.332108
 20
-44.596586
 30
0.0
 10
199.984162
 20
-44.006488
 30
0.0
 10
202.649701
 20
-43.328251
 30
0.0
 10
204.341493
 20
-43.321986
 30
0.0
  0
SPLINE
  5
192
100
AcDbEntity
  8
0
 62
7
100
AcDbSpline
 70
8
 71
3
 72
8
 73
4
 74
0
 40
0
 40
0
 40
0
 40
0
 40
1
 40
1
 40
1
 40
1
 10
204.341493
 20
-43.321986
 30
0.0
 10
206.474926
 20
-43.314084
 30
0.0
 10
213.453167
 20
-44.812656
 30
0.0
 10
213.453167
 20
-45.278746
 30
0.0
  0
SPLINE
  5
193
100
AcDbEntity
  8
0
 62
7
100
AcDbSpline
 70
8
 71
3
 72
8
 73
4
 74
0
 40
0
 40
0
 40
0
 40
0
 40
1
 40
1
 40
1
 40
1
 10
213.453167
 20
-45.278746
 30
0.0
 10
213.453167
 20
-45.564467
 30
0.0
 10
209.401887
 20
-46.534973
 30
0.0
 10
205.708371
 20
-47.134018
 30
0.0
  0
SPLINE
  5
194
100
AcDbEntity
  8
0
 62
7
100
AcDbSpline
 70
8
 71
3
 72
8
 73
4
 74
0
 40
0
 40
0
 40
0
 40
0
 40
1
 40
1
 40
1
 40
1
 10
205.708371
 20
-47.134018
 30
0.0
 10
202.715074
 20
-47.619525
 30
0.0
 10
202.701962
 20
-47.619581
 30
0.0
 10
200.980582
 20
-47.156314
 30
0.0
  0
LWPOLYLINE
  5
195
100
AcDbEntity
  8
0
 62
7
100
AcDbPolyline
 90
2
 70
1
 10
456.480954
 20
4.715679
 30
0.0
 10
456.480954
 20
4.715595
 30
0.0
  0
SPLINE
  5
196
100
AcDbEntity
  8
0
 62
7
100
AcDbSpline
 70
8
 71
3
 72
8
 73
4
 74
0
 40
0
 40
0
 40
0
 40
0
 40
1
 40
1
 40
1
 40
1
 10
229.963167
 20
-47.101647
 30
0.0
 10
226.211934
 20
-46.412122
 30
0.0
 10
222.766501
 20
-45.543018
 30
0.0
 10
222.766501
 20
-45.286281
 30
0.0
  0
SPLINE
  5
197
100
AcDbEntity
  8
0
 62
7
100
AcDbSpline
 70
8
 71
3
 72
8
 73
4
 74
0
 40
0
 40
0
 40
0
 40
0
 40
1
 40
1
 40
1
 40
1
 10
222.766501
 20
-45.286281
 30
0.0
 10
222.766501
 20
-44.878554
 30
0.0
 10
223.124299
 20
-44.769334
 30
0.0
 10
227.031525
 20
-43.984164
 30
0.0
  0
SPLINE
  5
198
100
AcDbEntity
  8
0
 62
7
100
AcDbSpline
 70
8
 71
3
 72
8
 73
4
 74
0
 40
0
 40
0
 40
0
 40
0
 40
1
 40
1
 40
1
 40
1
 10
227.031525
 20
-43.984164
 30
0.0
 10
230.484073
 20
-43.290349
 30
0.0
 10
230.999448
 20
-43.252446
 30
0.0
 10
233.009073
 20
-43.544603
 30
0.0
  0
SPLINE
  5
199
100
AcDbEntity
  8
0
 62
7
100
AcDbSpline
 70
8
 71
3
 72
8
 73
4
 74
0
 40
0
 40
0
 40
0
 40
0
 40
1
 40
1
 40
1
 40
1
 10
233.009073
 20
-43.544603
 30
0.0
 10
236.917286
 20
-44.112744
 30
0.0
 10
238.331925
 20
-45.682154
 30
0.0
 10
235.938540
 20
-46.794618
 30
0.0
  0
SPLINE
  5
19a
100
AcDbEntity
  8
0
 62
7
100
AcDbSpline
 70
8
 71
3
 72
8
 73
4
 74
0
 40
0
 40
0
 40
0
 40
0
 40
1
 40
1
 40
1
 40
1
 10
235.938540
 20
-46.794618
 30
0.0
 10
234.539084
 20
-47.445083
 30
0.0
 10
232.423180
 20
-47.553824
 30
0.0
 10
229.963167
 20
-47.101647
 30
0.0
  0
LWPOLYLINE
  5
19b
100
AcDbEntity
  8
0
 62
7
100
AcDbPolyline
 90
2
 70
1
 10
200.980582
 20
-47.156314
 30
0.0
 10
200.980582
 20
-47.156172
 30
0.0
  0
SPLINE
  5
19c
100
AcDbEntity
  8
0
 62
7
100
AcDbSpline
 70
8
 71
3
 72
8
 73
4
 74
0
 40
0
 40
0
 40
0
 40
0
 40
1
 40
1
 40
1
 40
1
 10
178.472584
 20
-45.452284
 30
0.0
 10
177.878952
 20
-44.737020
 30
0.0
 10
178.656223
 20
-43.905876
 30
0.0
 10
180.856532
 20
-42.903168
 30
0.0
  0
SPLINE
  5
19d
100
AcDbEntity
  8
0
 62
7
100
AcDbSpline
 70
8
 71
3
 72
8
 73
4
 74
0
 40
0
 40
0
 40
0
 40
0
 40
1
 40
1
 40
1
 40
1
 10
180.856532
 20
-42.903168
 30
0.0
 10
182.598052
 20
-42.109531
 30
0.0
 10
183.030043
 20
-41.772501
 30
0.0
 10
183.508921
 20
-40.833830
 30
0.0
  0
LWPOLYLINE
  5
19e
100
AcDbEntity
  8
0
 62
7
100
AcDbPolyline
 90
2
 70
1
 10
229.963167
 20
-47.101647
 30
0.0
 10
229.963167
 20
-47.101647
 30
0.0
  0
SPLINE
  5
19f
100
AcDbEntity
  8
0
 62
7
100
AcDbSpline
 70
8
 71
3
 72
8
 73
4
 74
0
 40
0
 40
0
 40
0
 40
0
 40
1
 40
1
 40
1
 40
1
 10
186.278732
 20
-40.129093
 30
0.0
 10
187.487504
 20
-40.358229
 30
0.0
 10
188.963912
 20
-40.629614
 30
0.0
 10
189.559636
 20
-40.732202
 30
0.0
  0
SPLINE
  5
1a0
100
AcDbEntity
  8
0
 62
7
100
AcDbSpline
 70
8
 71
3
 72
8
 73
4
 74
0
 40
0
 40
0
 40
0
 40
0
 40
1
 40
1
 40
1
 40
1
 10
189.559636
 20
-40.732202
 30
0.0
 10
190.155362
 20
-40.834762
 30
0.0
 10
190.637132
 20
-41.025939
 30
0.0
 10
190.630240
 20
-41.157031
 30
0.0
  0
SPLINE
  5
1a1
100
AcDbEntity
  8
0
 62
7
100
AcDbSpline
 70
8
 71
3
 72
8
 73
4
 74
0
 40
0
 40
0
 40
0
 40
0
 40
1
 40
1
 40
1
 40
1
 10
190.630240
 20
-41.157031
 30
0.0
 10
190.615169
 20
-41.443741
 30
0.0
 10
184.733619
 20
-44.185106
 30
0.0
 10
182.039125
 20
-45.161313
 30
0.0
  0
SPLINE
  5
1a2
100
AcDbEntity
  8
0
 62
7
100
AcDbSpline
 70
8
 71
3
 72
8
 73
4
 74
0
 40
0
 40
0
 40
0
 40
0
 40
1
 40
1
 40
1
 40
1
 10
182.039125
 20
-45.161313
 30
0.0
 10
179.842628
 20
-45.957095
 30
0.0
 10
178.951850
 20
-46.029767
 30
0.0
 10
178.472584
 20
-45.452284
 30
0.0
  0
LWPOLYLINE
  5
1a3
100
AcDbEntity
  8
0
 62
7
100
AcDbPolyline
 90
3
 70
1
 10
183.508921
 20
-40.833830
 30
0.0
 10
184.080966
 20
-39.712505
 30
0.0
 10
186.278732
 20
-40.129093
 30
0.0
  0
SPLINE
  5
1a4
100
AcDbEntity
  8
0
 62
7
100
AcDbSpline
 70
8
 71
3
 72
8
 73
4
 74
0
 40
0
 40
0
 40
0
 40
0
 40
1
 40
1
 40
1
 40
1
 10
253.952050
 20
-45.160748
 30
0.0
 10
251.372314
 20
-44.269660
 30
0.0
 10
245.320171
 20
-41.463129
 30
0.0
 10
245.318252
 20
-41.157031
 30
0.0
  0
SPLINE
  5
1a5
100
AcDbEntity
  8
0
 62
7
100
AcDbSpline
 70
8
 71
3
 72
8
 73
4
 74
0
 40
0
 40
0
 40
0
 40
0
 40
1
 40
1
 40
1
 40
1
 10
245.318252
 20
-41.157031
 30
0.0
 10
245.315430
 20
-40.896314
 30
0.0
 10
249.758736
 20
-39.974915
 30
0.0
 10
251.148116
 20
-39.947794
 30
0.0
  0
SPLINE
  5
1a6
100
AcDbEntity
  8
0
 62
7
100
AcDbSpline
 70
8
 71
3
 72
8
 73
4
 74
0
 40
0
 40
0
 40
0
 40
0
 40
1
 40
1
 40
1
 40
1
 10
251.148116
 20
-39.947794
 30
0.0
 10
251.868855
 20
-39.933682
 30
0.0
 10
252.092996
 20
-40.098557
 30
0.0
 10
252.492623
 20
-40.936559
 30
0.0
  0
SPLINE
  5
1a7
100
AcDbEntity
  8
0
 62
7
100
AcDbSpline
 70
8
 71
3
 72
8
 73
4
 74
0
 40
0
 40
0
 40
0
 40
0
 40
1
 40
1
 40
1
 40
1
 10
252.492623
 20
-40.936559
 30
0.0
 10
252.884686
 20
-41.758757
 30
0.0
 10
253.358170
 20
-42.118082
 30
0.0
 10
255.088418
 20
-42.906583
 30
0.0
  0
SPLINE
  5
1a8
100
AcDbEntity
  8
0
 62
7
100
AcDbSpline
 70
8
 71
3
 72
8
 73
4
 74
0
 40
0
 40
0
 40
0
 40
0
 40
1
 40
1
 40
1
 40
1
 10
255.088418
 20
-42.906583
 30
0.0
 10
256.564130
 20
-43.579090
 30
0.0
 10
257.305528
 20
-44.092340
 30
0.0
 10
257.537881
 20
-44.602287
 30
0.0
  0
SPLINE
  5
1a9
100
AcDbEntity
  8
0
 62
7
100
AcDbSpline
 70
8
 71
3
 72
8
 73
4
 74
0
 40
0
 40
0
 40
0
 40
0
 40
1
 40
1
 40
1
 40
1
 10
257.537881
 20
-44.602287
 30
0.0
 10
257.808448
 20
-45.196111
 30
0.0
 10
257.794534
 20
-45.381982
 30
0.0
 10
257.463770
 20
-45.591250
 30
0.0
  0
SPLINE
  5
1aa
100
AcDbEntity
  8
0
 62
7
100
AcDbSpline
 70
8
 71
3
 72
8
 73
4
 74
0
 40
0
 40
0
 40
0
 40
0
 40
1
 40
1
 40
1
 40
1
 10
257.463770
 20
-45.591250
 30
0.0
 10
256.832664
 20
-45.990566
 30
0.0
 10
256.091182
 20
-45.899663
 30
0.0
 10
253.952050
 20
-45.160748
 30
0.0
  0
LWPOLYLINE
  5
1ab
100
AcDbEntity
  8
0
 62
7
100
AcDbPolyline
 90
2
 70
1
 10
178.472584
 20
-45.452284
 30
0.0
 10
178.472584
 20
-45.452284
 30
0.0
  0
SPLINE
  5
1ac
100
AcDbEntity
  8
0
 62
7
100
AcDbSpline
 70
8
 71
3
 72
8
 73
4
 74
0
 40
0
 40
0
 40
0
 40
0
 40
1
 40
1
 40
1
 40
1
 10
216.510156
 20
-43.781867
 30
0.0
 10
214.648906
 20
-43.200828
 30
0.0
 10
215.005556
 20
-43.035361
 30
0.0
 10
218.119240
 20
-43.035361
 30
0.0
  0
SPLINE
  5
1ad
100
AcDbEntity
  8
0
 62
7
100
AcDbSpline
 70
8
 71
3
 72
8
 73
4
 74
0
 40
0
 40
0
 40
0
 40
0
 40
1
 40
1
 40
1
 40
1
 10
218.119240
 20
-43.035361
 30
0.0
 10
221.232053
 20
-43.035361
 30
0.0
 10
221.582423
 20
-43.239888
 30
0.0
 10
219.488202
 20
-43.834445
 30
0.0
  0
SPLINE
  5
1ae
100
AcDbEntity
  8
0
 62
7
100
AcDbSpline
 70
8
 71
3
 72
8
 73
4
 74
0
 40
0
 40
0
 40
0
 40
0
 40
1
 40
1
 40
1
 40
1
 10
219.488202
 20
-43.834445
 30
0.0
 10
218.135160
 20
-44.218606
 30
0.0
 10
217.895486
 20
-44.214373
 30
0.0
 10
216.510156
 20
-43.781867
 30
0.0
  0
LWPOLYLINE
  5
1af
100
AcDbEntity
  8
0
 62
7
100
AcDbPolyline
 90
2
 70
1
 10
253.952050
 20
-45.160748
 30
0.0
 10
253.952050
 20
-45.160748
 30
0.0
  0
SPLINE
  5
1b0
100
AcDbEntity
  8
0
 62
7
100
AcDbSpline
 70
8
 71
3
 72
8
 73
4
 74
0
 40
0
 40
0
 40
0
 40
0
 40
1
 40
1
 40
1
 40
1
 10
204.704278
 20
-40.764178
 30
0.0
 10
191.658539
 20
-39.768244
 30
0.0
 10
179.103695
 20
-37.344265
 30
0.0
 10
168.280822
 20
-33.731764
 30
0.0
  0
SPLINE
  5
1b1
100
AcDbEntity
  8
0
 62
7
100
AcDbSpline
 70
8
 71
3
 72
8
 73
4
 74
0
 40
0
 40
0
 40
0
 40
0
 40
1
 40
1
 40
1
 40
1
 10
168.280822
 20
-33.731764
 30
0.0
 10
161.958076
 20
-31.621335
 30
0.0
 10
161.524273
 20
-31.405971
 30
0.0
 10
161.524273
 20
-30.377299
 30
0.0
  0
SPLINE
  5
1b2
100
AcDbEntity
  8
0
 62
7
100
AcDbSpline
 70
8
 71
3
 72
8
 73
4
 74
0
 40
0
 40
0
 40
0
 40
0
 40
1
 40
1
 40
1
 40
1
 10
161.524273
 20
-30.377299
 30
0.0
 10
161.524273
 20
-29.892131
 30
0.0
 10
161.242700
 20
-29.322917
 30
0.0
 10
160.794898
 20
-28.902858
 30
0.0
  0
SPLINE
  5
1b3
100
AcDbEntity
  8
0
 62
7
100
AcDbSpline
 70
8
 71
3
 72
8
 73
4
 74
0
 40
0
 40
0
 40
0
 40
0
 40
1
 40
1
 40
1
 40
1
 10
160.794898
 20
-28.902858
 30
0.0
 10
160.121769
 20
-28.271470
 30
0.0
 10
159.844176
 20
-28.218666
 30
0.0
 10
157.196564
 20
-28.218666
 30
0.0
  0
LWPOLYLINE
  5
1b4
100
AcDbEntity
  8
0
 62
7
100
AcDbPolyline
 90
2
 70
1
 10
216.510156
 20
-43.781867
 30
0.0
 10
216.510156
 20
-43.781867
 30
0.0
  0
SPLINE
  5
1b5
100
AcDbEntity
  8
0
 62
7
100
AcDbSpline
 70
8
 71
3
 72
8
 73
4
 74
0
 40
0
 40
0
 40
0
 40
0
 40
1
 40
1
 40
1
 40
1
 10
150.517606
 20
-26.133100
 30
0.0
 10
146.327114
 20
-23.839255
 30
0.0
 10
142.493605
 20
-21.493452
 30
0.0
 10
141.645414
 20
-20.704048
 30
0.0
  0
SPLINE
  5
1b6
100
AcDbEntity
  8
0
 62
7
100
AcDbSpline
 70
8
 71
3
 72
8
 73
4
 74
0
 40
0
 40
0
 40
0
 40
0
 40
1
 40
1
 40
1
 40
1
 10
141.645414
 20
-20.704048
 30
0.0
 10
141.131149
 20
-20.225399
 30
0.0
 10
141.126972
 20
-20.164100
 30
0.0
 10
141.574859
 20
-19.669196
 30
0.0
  0
SPLINE
  5
1b7
100
AcDbEntity
  8
0
 62
7
100
AcDbSpline
 70
8
 71
3
 72
8
 73
4
 74
0
 40
0
 40
0
 40
0
 40
0
 40
1
 40
1
 40
1
 40
1
 10
141.574859
 20
-19.669196
 30
0.0
 10
143.144522
 20
-17.934714
 30
0.0
 10
141.003161
 20
-16.224222
 30
0.0
 10
137.262108
 20
-16.224222
 30
0.0
  0
SPLINE
  5
1b8
100
AcDbEntity
  8
0
 62
7
100
AcDbSpline
 70
8
 71
3
 72
8
 73
4
 74
0
 40
0
 40
0
 40
0
 40
0
 40
1
 40
1
 40
1
 40
1
 10
137.262108
 20
-16.224222
 30
0.0
 10
135.322649
 20
-16.224222
 30
0.0
 10
135.292592
 20
-16.212368
 30
0.0
 10
133.528364
 20
-14.758614
 30
0.0
  0
SPLINE
  5
1b9
100
AcDbEntity
  8
0
 62
7
100
AcDbSpline
 70
8
 71
3
 72
8
 73
4
 74
0
 40
0
 40
0
 40
0
 40
0
 40
1
 40
1
 40
1
 40
1
 10
133.528364
 20
-14.758614
 30
0.0
 10
130.836134
 20
-12.540065
 30
0.0
 10
123.424273
 20
-5.171553
 30
0.0
 10
123.424273
 20
-4.713619
 30
0.0
  0
SPLINE
  5
1ba
100
AcDbEntity
  8
0
 62
7
100
AcDbSpline
 70
8
 71
3
 72
8
 73
4
 74
0
 40
0
 40
0
 40
0
 40
0
 40
1
 40
1
 40
1
 40
1
 10
123.424273
 20
-4.713619
 30
0.0
 10
123.424273
 20
-4.492188
 30
0.0
 10
123.741773
 20
-4.061262
 30
0.0
 10
124.129828
 20
-3.756039
 30
0.0
  0
SPLINE
  5
1bb
100
AcDbEntity
  8
0
 62
7
100
AcDbSpline
 70
8
 71
3
 72
8
 73
4
 74
0
 40
0
 40
0
 40
0
 40
0
 40
1
 40
1
 40
1
 40
1
 10
124.129828
 20
-3.756039
 30
0.0
 10
126.004151
 20
-2.281682
 30
0.0
 10
124.043186
 20
-0.098862
 30
0.0
 10
120.466781
 20
0.321479
 30
0.0
  0
LWPOLYLINE
  5
1bc
100
AcDbEntity
  8
0
 62
7
100
AcDbPolyline
 90
3
 70
1
 10
157.196564
 20
-28.218666
 30
0.0
 10
154.327606
 20
-28.218666
 30
0.0
 10
150.517606
 20
-26.133100
 30
0.0
  0
SPLINE
  5
1bd
100
AcDbEntity
  8
0
 62
7
100
AcDbSpline
 70
8
 71
3
 72
8
 73
4
 74
0
 40
0
 40
0
 40
0
 40
0
 40
1
 40
1
 40
1
 40
1
 10
117.158544
 20
2.928394
 30
0.0
 10
114.097195
 20
7.235924
 30
0.0
 10
111.571617
 20
11.470809
 30
0.0
 10
109.114082
 20
16.417346
 30
0.0
  0
SPLINE
  5
1be
100
AcDbEntity
  8
0
 62
7
100
AcDbSpline
 70
8
 71
3
 72
8
 73
4
 74
0
 40
0
 40
0
 40
0
 40
0
 40
1
 40
1
 40
1
 40
1
 10
109.114082
 20
16.417346
 30
0.0
 10
107.790827
 20
19.080819
 30
0.0
 10
106.793764
 20
21.398569
 30
0.0
 10
106.898412
 20
21.567902
 30
0.0
  0
SPLINE
  5
1bf
100
AcDbEntity
  8
0
 62
7
100
AcDbSpline
 70
8
 71
3
 72
8
 73
4
 74
0
 40
0
 40
0
 40
0
 40
0
 40
1
 40
1
 40
1
 40
1
 10
106.898412
 20
21.567902
 30
0.0
 10
107.003060
 20
21.737235
 30
0.0
 10
107.318076
 20
21.875778
 30
0.0
 10
107.598408
 20
21.875778
 30
0.0
  0
SPLINE
  5
1c0
100
AcDbEntity
  8
0
 62
7
100
AcDbSpline
 70
8
 71
3
 72
8
 73
4
 74
0
 40
0
 40
0
 40
0
 40
0
 40
1
 40
1
 40
1
 40
1
 10
107.598408
 20
21.875778
 30
0.0
 10
107.878767
 20
21.875778
 30
0.0
 10
108.442788
 20
22.138979
 30
0.0
 10
108.851756
 20
22.460712
 30
0.0
  0
SPLINE
  5
1c1
100
AcDbEntity
  8
0
 62
7
100
AcDbSpline
 70
8
 71
3
 72
8
 73
4
 74
0
 40
0
 40
0
 40
0
 40
0
 40
1
 40
1
 40
1
 40
1
 10
108.851756
 20
22.460712
 30
0.0
 10
109.638987
 20
23.079936
 30
0.0
 10
109.811594
 20
24.048889
 30
0.0
 10
109.303707
 20
24.997862
 30
0.0
  0
SPLINE
  5
1c2
100
AcDbEntity
  8
0
 62
7
100
AcDbSpline
 70
8
 71
3
 72
8
 73
4
 74
0
 40
0
 40
0
 40
0
 40
0
 40
1
 40
1
 40
1
 40
1
 10
109.303707
 20
24.997862
 30
0.0
 10
108.947768
 20
25.662946
 30
0.0
 10
107.253560
 20
26.557845
 30
0.0
 10
105.852863
 20
26.820622
 30
0.0
  0
SPLINE
  5
1c3
100
AcDbEntity
  8
0
 62
7
100
AcDbSpline
 70
8
 71
3
 72
8
 73
4
 74
0
 40
0
 40
0
 40
0
 40
0
 40
1
 40
1
 40
1
 40
1
 10
105.852863
 20
26.820622
 30
0.0
 10
105.283536
 20
26.927443
 30
0.0
 10
104.695808
 20
27.161688
 30
0.0
 10
104.546823
 20
27.341209
 30
0.0
  0
SPLINE
  5
1c4
100
AcDbEntity
  8
0
 62
7
100
AcDbSpline
 70
8
 71
3
 72
8
 73
4
 74
0
 40
0
 40
0
 40
0
 40
0
 40
1
 40
1
 40
1
 40
1
 10
104.546823
 20
27.341209
 30
0.0
 10
104.052652
 20
27.936670
 30
0.0
 10
102.329686
 20
34.112070
 30
0.0
 10
101.937792
 20
36.692456
 30
0.0
  0
SPLINE
  5
1c5
100
AcDbEntity
  8
0
 62
7
100
AcDbSpline
 70
8
 71
3
 72
8
 73
4
 74
0
 40
0
 40
0
 40
0
 40
0
 40
1
 40
1
 40
1
 40
1
 10
101.937792
 20
36.692456
 30
0.0
 10
101.431852
 20
40.023864
 30
0.0
 10
101.424204
 20
50.608665
 30
0.0
 10
101.926503
 20
52.299571
 30
0.0
  0
SPLINE
  5
1c6
100
AcDbEntity
  8
0
 62
7
100
AcDbSpline
 70
8
 71
3
 72
8
 73
4
 74
0
 40
0
 40
0
 40
0
 40
0
 40
1
 40
1
 40
1
 40
1
 10
101.926503
 20
52.299571
 30
0.0
 10
102.358359
 20
53.753298
 30
0.0
 10
101.993672
 20
53.815499
 30
0.0
 10
107.530082
 20
51.343741
 30
0.0
  0
SPLINE
  5
1c7
100
AcDbEntity
  8
0
 62
7
100
AcDbSpline
 70
8
 71
3
 72
8
 73
4
 74
0
 40
0
 40
0
 40
0
 40
0
 40
1
 40
1
 40
1
 40
1
 10
107.530082
 20
51.343741
 30
0.0
 10
109.731443
 20
50.360930
 30
0.0
 10
112.715943
 20
49.151636
 30
0.0
 10
114.162304
 20
48.656449
 30
0.0
  0
SPLINE
  5
1c8
100
AcDbEntity
  8
0
 62
7
100
AcDbSpline
 70
8
 71
3
 72
8
 73
4
 74
0
 40
0
 40
0
 40
0
 40
0
 40
1
 40
1
 40
1
 40
1
 10
114.162304
 20
48.656449
 30
0.0
 10
115.608664
 20
48.161262
 30
0.0
 10
116.929464
 20
47.616262
 30
0.0
 10
117.097415
 20
47.445377
 30
0.0
  0
SPLINE
  5
1c9
100
AcDbEntity
  8
0
 62
7
100
AcDbSpline
 70
8
 71
3
 72
8
 73
4
 74
0
 40
0
 40
0
 40
0
 40
0
 40
1
 40
1
 40
1
 40
1
 10
117.097415
 20
47.445377
 30
0.0
 10
117.316504
 20
47.222478
 30
0.0
 10
117.281678
 20
45.707396
 30
0.0
 10
116.974112
 20
42.083352
 30
0.0
  0
SPLINE
  5
1ca
100
AcDbEntity
  8
0
 62
7
100
AcDbSpline
 70
8
 71
3
 72
8
 73
4
 74
0
 40
0
 40
0
 40
0
 40
0
 40
1
 40
1
 40
1
 40
1
 10
116.974112
 20
42.083352
 30
0.0
 10
116.615887
 20
37.862042
 30
0.0
 10
116.601833
 20
36.354890
 30
0.0
 10
116.888655
 20
32.911130
 30
0.0
  0
SPLINE
  5
1cb
100
AcDbEntity
  8
0
 62
7
100
AcDbSpline
 70
8
 71
3
 72
8
 73
4
 74
0
 40
0
 40
0
 40
0
 40
0
 40
1
 40
1
 40
1
 40
1
 10
116.888655
 20
32.911130
 30
0.0
 10
118.417001
 20
14.559139
 30
0.0
 10
128.163743
 20
-1.222192
 30
0.0
 10
147.695384
 20
-16.969430
 30
0.0
  0
SPLINE
  5
1cc
100
AcDbEntity
  8
0
 62
7
100
AcDbSpline
 70
8
 71
3
 72
8
 73
4
 74
0
 40
0
 40
0
 40
0
 40
0
 40
1
 40
1
 40
1
 40
1
 10
147.695384
 20
-16.969430
 30
0.0
 10
150.714823
 20
-19.403822
 30
0.0
 10
151.646495
 20
-19.833505
 30
0.0
 10
151.646495
 20
-18.791682
 30
0.0
  0
SPLINE
  5
1cd
100
AcDbEntity
  8
0
 62
7
100
AcDbSpline
 70
8
 71
3
 72
8
 73
4
 74
0
 40
0
 40
0
 40
0
 40
0
 40
1
 40
1
 40
1
 40
1
 10
151.646495
 20
-18.791682
 30
0.0
 10
151.646495
 20
-18.453298
 30
0.0
 10
150.106775
 20
-16.902656
 30
0.0
 10
147.483717
 20
-14.599412
 30
0.0
  0
SPLINE
  5
1ce
100
AcDbEntity
  8
0
 62
7
100
AcDbSpline
 70
8
 71
3
 72
8
 73
4
 74
0
 40
0
 40
0
 40
0
 40
0
 40
1
 40
1
 40
1
 40
1
 10
147.483717
 20
-14.599412
 30
0.0
 10
132.517586
 20
-1.458016
 30
0.0
 10
125.444250
 20
9.954514
 30
0.0
 10
121.613394
 20
27.141142
 30
0.0
  0
SPLINE
  5
1cf
100
AcDbEntity
  8
0
 62
7
100
AcDbSpline
 70
8
 71
3
 72
8
 73
4
 74
0
 40
0
 40
0
 40
0
 40
0
 40
1
 40
1
 40
1
 40
1
 10
121.613394
 20
27.141142
 30
0.0
 10
120.091200
 20
33.970225
 30
0.0
 10
119.659202
 20
37.289130
 30
0.0
 10
119.635496
 20
42.336901
 30
0.0
  0
LWPOLYLINE
  5
1d0
100
AcDbEntity
  8
0
 62
7
100
AcDbPolyline
 90
3
 70
1
 10
120.466781
 20
0.321479
 30
0.0
 10
118.878604
 20
0.508141
 30
0.0
 10
117.158544
 20
2.928394
 30
0.0
  0
SPLINE
  5
1d1
100
AcDbEntity
  8
0
 62
7
100
AcDbSpline
 70
8
 71
3
 72
8
 73
4
 74
0
 40
0
 40
0
 40
0
 40
0
 40
1
 40
1
 40
1
 40
1
 10
122.436551
 20
46.862616
 30
0.0
 10
125.885476
 20
46.875034
 30
0.0
 10
127.650099
 20
47.276185
 30
0.0
 10
130.750931
 20
48.752546
 30
0.0
  0
SPLINE
  5
1d2
100
AcDbEntity
  8
0
 62
7
100
AcDbSpline
 70
8
 71
3
 72
8
 73
4
 74
0
 40
0
 40
0
 40
0
 40
0
 40
1
 40
1
 40
1
 40
1
 10
130.750931
 20
48.752546
 30
0.0
 10
134.874564
 20
50.715853
 30
0.0
 10
137.422608
 20
53.850975
 30
0.0
 10
138.111964
 20
57.809536
 30
0.0
  0
SPLINE
  5
1d3
100
AcDbEntity
  8
0
 62
7
100
AcDbSpline
 70
8
 71
3
 72
8
 73
4
 74
0
 40
0
 40
0
 40
0
 40
0
 40
1
 40
1
 40
1
 40
1
 10
138.111964
 20
57.809536
 30
0.0
 10
138.338983
 20
59.113206
 30
0.0
 10
138.578900
 20
59.717951
 30
0.0
 10
138.910907
 20
59.823333
 30
0.0
  0
SPLINE
  5
1d4
100
AcDbEntity
  8
0
 62
7
100
AcDbSpline
 70
8
 71
3
 72
8
 73
4
 74
0
 40
0
 40
0
 40
0
 40
0
 40
1
 40
1
 40
1
 40
1
 10
138.910907
 20
59.823333
 30
0.0
 10
139.171878
 20
59.906137
 30
0.0
 10
140.132195
 20
60.168434
 30
0.0
 10
141.044958
 20
60.406178
 30
0.0
  0
SPLINE
  5
1d5
100
AcDbEntity
  8
0
 62
7
100
AcDbSpline
 70
8
 71
3
 72
8
 73
4
 74
0
 40
0
 40
0
 40
0
 40
0
 40
1
 40
1
 40
1
 40
1
 10
141.044958
 20
60.406178
 30
0.0
 10
143.409839
 20
61.022157
 30
0.0
 10
146.407039
 20
62.680071
 30
0.0
 10
148.264372
 20
64.399623
 30
0.0
  0
SPLINE
  5
1d6
100
AcDbEntity
  8
0
 62
7
100
AcDbSpline
 70
8
 71
3
 72
8
 73
4
 74
0
 40
0
 40
0
 40
0
 40
0
 40
1
 40
1
 40
1
 40
1
 10
148.264372
 20
64.399623
 30
0.0
 10
149.780752
 20
65.803509
 30
0.0
 10
151.646551
 20
68.711747
 30
0.0
 10
151.646551
 20
69.671415
 30
0.0
  0
SPLINE
  5
1d7
100
AcDbEntity
  8
0
 62
7
100
AcDbSpline
 70
8
 71
3
 72
8
 73
4
 74
0
 40
0
 40
0
 40
0
 40
0
 40
1
 40
1
 40
1
 40
1
 10
151.646551
 20
69.671415
 30
0.0
 10
151.646551
 20
70.315859
 30
0.0
 10
152.384139
 20
70.600333
 30
0.0
 10
154.555557
 20
70.793384
 30
0.0
  0
SPLINE
  5
1d8
100
AcDbEntity
  8
0
 62
7
100
AcDbSpline
 70
8
 71
3
 72
8
 73
4
 74
0
 40
0
 40
0
 40
0
 40
0
 40
1
 40
1
 40
1
 40
1
 10
154.555557
 20
70.793384
 30
0.0
 10
159.926500
 20
71.270887
 30
0.0
 10
164.528246
 20
73.412079
 30
0.0
 10
165.904903
 20
76.074242
 30
0.0
  0
SPLINE
  5
1d9
100
AcDbEntity
  8
0
 62
7
100
AcDbSpline
 70
8
 71
3
 72
8
 73
4
 74
0
 40
0
 40
0
 40
0
 40
0
 40
1
 40
1
 40
1
 40
1
 10
165.904903
 20
76.074242
 30
0.0
 10
166.266089
 20
76.772697
 30
0.0
 10
166.480501
 20
76.849994
 30
0.0
 10
168.559805
 20
77.031376
 30
0.0
  0
SPLINE
  5
1da
100
AcDbEntity
  8
0
 62
7
100
AcDbSpline
 70
8
 71
3
 72
8
 73
4
 74
0
 40
0
 40
0
 40
0
 40
0
 40
1
 40
1
 40
1
 40
1
 10
168.559805
 20
77.031376
 30
0.0
 10
171.154098
 20
77.257679
 30
0.0
 10
173.498473
 20
77.897522
 30
0.0
 10
180.433224
 20
80.271953
 30
0.0
  0
SPLINE
  5
1db
100
AcDbEntity
  8
0
 62
7
100
AcDbSpline
 70
8
 71
3
 72
8
 73
4
 74
0
 40
0
 40
0
 40
0
 40
0
 40
1
 40
1
 40
1
 40
1
 10
180.433224
 20
80.271953
 30
0.0
 10
194.119503
 20
84.958081
 30
0.0
 10
209.982455
 20
87.288226
 30
0.0
 10
222.953938
 20
86.517917
 30
0.0
  0
SPLINE
  5
1dc
100
AcDbEntity
  8
0
 62
7
100
AcDbSpline
 70
8
 71
3
 72
8
 73
4
 74
0
 40
0
 40
0
 40
0
 40
0
 40
1
 40
1
 40
1
 40
1
 10
222.953938
 20
86.517917
 30
0.0
 10
235.266907
 20
85.786714
 30
0.0
 10
248.396534
 20
83.089976
 30
0.0
 10
258.749885
 20
79.165664
 30
0.0
  0
SPLINE
  5
1dd
100
AcDbEntity
  8
0
 62
7
100
AcDbSpline
 70
8
 71
3
 72
8
 73
4
 74
0
 40
0
 40
0
 40
0
 40
0
 40
1
 40
1
 40
1
 40
1
 10
258.749885
 20
79.165664
 30
0.0
 10
261.844113
 20
77.992839
 30
0.0
 10
264.825028
 20
77.258751
 30
0.0
 10
267.441736
 20
77.025192
 30
0.0
  0
SPLINE
  5
1de
100
AcDbEntity
  8
0
 62
7
100
AcDbSpline
 70
8
 71
3
 72
8
 73
4
 74
0
 40
0
 40
0
 40
0
 40
0
 40
1
 40
1
 40
1
 40
1
 10
267.441736
 20
77.025192
 30
0.0
 10
269.452288
 20
76.845733
 30
0.0
 10
269.676316
 20
76.763330
 30
0.0
 10
270.034032
 20
76.071592
 30
0.0
  0
SPLINE
  5
1df
100
AcDbEntity
  8
0
 62
7
100
AcDbSpline
 70
8
 71
3
 72
8
 73
4
 74
0
 40
0
 40
0
 40
0
 40
0
 40
1
 40
1
 40
1
 40
1
 10
270.034032
 20
76.071592
 30
0.0
 10
271.415087
 20
73.400920
 30
0.0
 10
276.099298
 20
71.234088
 30
0.0
 10
281.463948
 20
70.784336
 30
0.0
  0
SPLINE
  5
1e0
100
AcDbEntity
  8
0
 62
7
100
AcDbSpline
 70
8
 71
3
 72
8
 73
4
 74
0
 40
0
 40
0
 40
0
 40
0
 40
1
 40
1
 40
1
 40
1
 10
281.463948
 20
70.784336
 30
0.0
 10
282.526458
 20
70.695261
 30
0.0
 10
283.504555
 20
70.544634
 30
0.0
 10
283.637510
 20
70.449609
 30
0.0
  0
SPLINE
  5
1e1
100
AcDbEntity
  8
0
 62
7
100
AcDbSpline
 70
8
 71
3
 72
8
 73
4
 74
0
 40
0
 40
0
 40
0
 40
0
 40
1
 40
1
 40
1
 40
1
 10
283.637510
 20
70.449609
 30
0.0
 10
283.770437
 20
70.354588
 30
0.0
 10
284.353198
 20
69.305969
 30
0.0
 10
284.932487
 20
68.119340
 30
0.0
  0
SPLINE
  5
1e2
100
AcDbEntity
  8
0
 62
7
100
AcDbSpline
 70
8
 71
3
 72
8
 73
4
 74
0
 40
0
 40
0
 40
0
 40
0
 40
1
 40
1
 40
1
 40
1
 10
284.932487
 20
68.119340
 30
0.0
 10
286.756912
 20
64.382294
 30
0.0
 10
290.622341
 20
61.482518
 30
0.0
 10
295.395086
 20
60.270458
 30
0.0
  0
LWPOLYLINE
  5
1e3
100
AcDbEntity
  8
0
 62
7
100
AcDbPolyline
 90
3
 70
1
 10
119.635496
 20
42.336901
 30
0.0
 10
119.614329
 20
46.852456
 30
0.0
 10
122.436551
 20
46.862616
 30
0.0
  0
SPLINE
  5
1e4
100
AcDbEntity
  8
0
 62
7
100
AcDbSpline
 70
8
 71
3
 72
8
 73
4
 74
0
 40
0
 40
0
 40
0
 40
0
 40
1
 40
1
 40
1
 40
1
 10
297.738659
 20
57.897279
 30
0.0
 10
298.446472
 20
54.062162
 30
0.0
 10
300.889360
 20
50.951480
 30
0.0
 10
304.812192
 20
48.890101
 30
0.0
  0
SPLINE
  5
1e5
100
AcDbEntity
  8
0
 62
7
100
AcDbSpline
 70
8
 71
3
 72
8
 73
4
 74
0
 40
0
 40
0
 40
0
 40
0
 40
1
 40
1
 40
1
 40
1
 10
304.812192
 20
48.890101
 30
0.0
 10
307.635092
 20
47.406712
 30
0.0
 10
309.607514
 20
46.937885
 30
0.0
 10
313.218774
 20
46.891911
 30
0.0
  0
LWPOLYLINE
  5
1e6
100
AcDbEntity
  8
0
 62
7
100
AcDbPolyline
 90
3
 70
1
 10
295.395086
 20
60.270458
 30
0.0
 10
297.394376
 20
59.762740
 30
0.0
 10
297.738659
 20
57.897279
 30
0.0
  0
SPLINE
  5
1e7
100
AcDbEntity
  8
0
 62
7
100
AcDbSpline
 70
8
 71
3
 72
8
 73
4
 74
0
 40
0
 40
0
 40
0
 40
0
 40
1
 40
1
 40
1
 40
1
 10
316.250856
 20
42.195733
 30
0.0
 10
316.121034
 20
33.839331
 30
0.0
 10
313.869634
 20
23.080895
 30
0.0
 10
310.492507
 20
14.679055
 30
0.0
  0
SPLINE
  5
1e8
100
AcDbEntity
  8
0
 62
7
100
AcDbSpline
 70
8
 71
3
 72
8
 73
4
 74
0
 40
0
 40
0
 40
0
 40
0
 40
1
 40
1
 40
1
 40
1
 10
310.492507
 20
14.679055
 30
0.0
 10
306.111600
 20
3.779943
 30
0.0
 10
299.846407
 20
-4.552837
 30
0.0
 10
288.594885
 20
-14.444980
 30
0.0
  0
SPLINE
  5
1e9
100
AcDbEntity
  8
0
 62
7
100
AcDbSpline
 70
8
 71
3
 72
8
 73
4
 74
0
 40
0
 40
0
 40
0
 40
0
 40
1
 40
1
 40
1
 40
1
 10
288.594885
 20
-14.444980
 30
0.0
 10
285.811694
 20
-16.891931
 30
0.0
 10
284.290996
 20
-18.423213
 30
0.0
 10
284.290996
 20
-18.778813
 30
0.0
  0
SPLINE
  5
1ea
100
AcDbEntity
  8
0
 62
7
100
AcDbSpline
 70
8
 71
3
 72
8
 73
4
 74
0
 40
0
 40
0
 40
0
 40
0
 40
1
 40
1
 40
1
 40
1
 10
284.290996
 20
-18.778813
 30
0.0
 10
284.290996
 20
-19.081270
 30
0.0
 10
284.473904
 20
-19.328723
 30
0.0
 10
284.697452
 20
-19.328723
 30
0.0
  0
SPLINE
  5
1eb
100
AcDbEntity
  8
0
 62
7
100
AcDbSpline
 70
8
 71
3
 72
8
 73
4
 74
0
 40
0
 40
0
 40
0
 40
0
 40
1
 40
1
 40
1
 40
1
 10
284.697452
 20
-19.328723
 30
0.0
 10
285.725447
 20
-19.328723
 30
0.0
 10
293.183282
 20
-13.029664
 30
0.0
 10
298.543218
 20
-7.634280
 30
0.0
  0
SPLINE
  5
1ec
100
AcDbEntity
  8
0
 62
7
100
AcDbSpline
 70
8
 71
3
 72
8
 73
4
 74
0
 40
0
 40
0
 40
0
 40
0
 40
1
 40
1
 40
1
 40
1
 10
298.543218
 20
-7.634280
 30
0.0
 10
310.126973
 20
4.026126
 30
0.0
 10
316.422673
 20
15.555412
 30
0.0
 10
318.606198
 20
29.106932
 30
0.0
  0
SPLINE
  5
1ed
100
AcDbEntity
  8
0
 62
7
100
AcDbSpline
 70
8
 71
3
 72
8
 73
4
 74
0
 40
0
 40
0
 40
0
 40
0
 40
1
 40
1
 40
1
 40
1
 10
318.606198
 20
29.106932
 30
0.0
 10
319.205582
 20
32.826915
 30
0.0
 10
319.278000
 20
40.237958
 30
0.0
 10
318.754450
 20
44.278928
 30
0.0
  0
SPLINE
  5
1ee
100
AcDbEntity
  8
0
 62
7
100
AcDbSpline
 70
8
 71
3
 72
8
 73
4
 74
0
 40
0
 40
0
 40
0
 40
0
 40
1
 40
1
 40
1
 40
1
 10
318.754450
 20
44.278928
 30
0.0
 10
318.455068
 20
46.589679
 30
0.0
 10
318.457608
 20
47.126692
 30
0.0
 10
318.769407
 20
47.411877
 30
0.0
  0
SPLINE
  5
1ef
100
AcDbEntity
  8
0
 62
7
100
AcDbSpline
 70
8
 71
3
 72
8
 73
4
 74
0
 40
0
 40
0
 40
0
 40
0
 40
1
 40
1
 40
1
 40
1
 10
318.769407
 20
47.411877
 30
0.0
 10
318.976276
 20
47.601164
 30
0.0
 10
320.299532
 20
48.150932
 30
0.0
 10
321.709937
 20
48.633561
 30
0.0
  0
SPLINE
  5
1f0
100
AcDbEntity
  8
0
 62
7
100
AcDbSpline
 70
8
 71
3
 72
8
 73
4
 74
0
 40
0
 40
0
 40
0
 40
0
 40
1
 40
1
 40
1
 40
1
 10
321.709937
 20
48.633561
 30
0.0
 10
323.120343
 20
49.116217
 30
0.0
 10
326.282219
 20
50.405239
 30
0.0
 10
328.736311
 20
51.498060
 30
0.0
  0
SPLINE
  5
1f1
100
AcDbEntity
  8
0
 62
7
100
AcDbSpline
 70
8
 71
3
 72
8
 73
4
 74
0
 40
0
 40
0
 40
0
 40
0
 40
1
 40
1
 40
1
 40
1
 10
328.736311
 20
51.498060
 30
0.0
 10
331.952148
 20
52.930112
 30
0.0
 10
333.296429
 20
53.403596
 30
0.0
 10
333.549639
 20
53.193482
 30
0.0
  0
SPLINE
  5
1f2
100
AcDbEntity
  8
0
 62
7
100
AcDbSpline
 70
8
 71
3
 72
8
 73
4
 74
0
 40
0
 40
0
 40
0
 40
0
 40
1
 40
1
 40
1
 40
1
 10
333.549639
 20
53.193482
 30
0.0
 10
334.607267
 20
52.315714
 30
0.0
 10
334.788538
 20
41.763707
 30
0.0
 10
333.842812
 20
36.127955
 30
0.0
  0
SPLINE
  5
1f3
100
AcDbEntity
  8
0
 62
7
100
AcDbSpline
 70
8
 71
3
 72
8
 73
4
 74
0
 40
0
 40
0
 40
0
 40
0
 40
1
 40
1
 40
1
 40
1
 10
333.842812
 20
36.127955
 30
0.0
 10
333.284012
 20
32.798072
 30
0.0
 10
331.676417
 20
27.499649
 30
0.0
 10
331.139800
 20
27.219148
 30
0.0
  0
SPLINE
  5
1f4
100
AcDbEntity
  8
0
 62
7
100
AcDbSpline
 70
8
 71
3
 72
8
 73
4
 74
0
 40
0
 40
0
 40
0
 40
0
 40
1
 40
1
 40
1
 40
1
 10
331.139800
 20
27.219148
 30
0.0
 10
330.907080
 20
27.097510
 30
0.0
 10
330.107375
 20
26.843284
 30
0.0
 10
329.362647
 20
26.654196
 30
0.0
  0
SPLINE
  5
1f5
100
AcDbEntity
  8
0
 62
7
100
AcDbSpline
 70
8
 71
3
 72
8
 73
4
 74
0
 40
0
 40
0
 40
0
 40
0
 40
1
 40
1
 40
1
 40
1
 10
329.362647
 20
26.654196
 30
0.0
 10
326.649362
 20
25.965235
 30
0.0
 10
325.446644
 20
23.750016
 30
0.0
 10
327.085847
 20
22.460656
 30
0.0
  0
SPLINE
  5
1f6
100
AcDbEntity
  8
0
 62
7
100
AcDbSpline
 70
8
 71
3
 72
8
 73
4
 74
0
 40
0
 40
0
 40
0
 40
0
 40
1
 40
1
 40
1
 40
1
 10
327.085847
 20
22.460656
 30
0.0
 10
327.494815
 20
22.138922
 30
0.0
 10
328.066315
 20
21.875722
 30
0.0
 10
328.355847
 20
21.875722
 30
0.0
  0
SPLINE
  5
1f7
100
AcDbEntity
  8
0
 62
7
100
AcDbSpline
 70
8
 71
3
 72
8
 73
4
 74
0
 40
0
 40
0
 40
0
 40
0
 40
1
 40
1
 40
1
 40
1
 10
328.355847
 20
21.875722
 30
0.0
 10
329.189588
 20
21.875722
 30
0.0
 10
329.003886
 20
20.977945
 30
0.0
 10
327.518974
 20
17.829925
 30
0.0
  0
SPLINE
  5
1f8
100
AcDbEntity
  8
0
 62
7
100
AcDbSpline
 70
8
 71
3
 72
8
 73
4
 74
0
 40
0
 40
0
 40
0
 40
0
 40
1
 40
1
 40
1
 40
1
 10
327.518974
 20
17.829925
 30
0.0
 10
325.787964
 20
14.160190
 30
0.0
 10
323.202610
 20
9.639074
 30
0.0
 10
320.499825
 20
5.555234
 30
0.0
  0
SPLINE
  5
1f9
100
AcDbEntity
  8
0
 62
7
100
AcDbSpline
 70
8
 71
3
 72
8
 73
4
 74
0
 40
0
 40
0
 40
0
 40
0
 40
1
 40
1
 40
1
 40
1
 10
320.499825
 20
5.555234
 30
0.0
 10
317.798422
 20
1.473652
 30
0.0
 10
316.879026
 20
0.426833
 30
0.0
 10
315.995614
 20
0.426833
 30
0.0
  0
SPLINE
  5
1fa
100
AcDbEntity
  8
0
 62
7
100
AcDbSpline
 70
8
 71
3
 72
8
 73
4
 74
0
 40
0
 40
0
 40
0
 40
0
 40
1
 40
1
 40
1
 40
1
 10
315.995614
 20
0.426833
 30
0.0
 10
312.525043
 20
0.426833
 30
0.0
 10
309.866143
 20
-2.228878
 30
0.0
 10
311.807662
 20
-3.756096
 30
0.0
  0
SPLINE
  5
1fb
100
AcDbEntity
  8
0
 62
7
100
AcDbSpline
 70
8
 71
3
 72
8
 73
4
 74
0
 40
0
 40
0
 40
0
 40
0
 40
1
 40
1
 40
1
 40
1
 10
311.807662
 20
-3.756096
 30
0.0
 10
312.195718
 20
-4.061319
 30
0.0
 10
312.513218
 20
-4.449770
 30
0.0
 10
312.513218
 20
-4.619300
 30
0.0
  0
SPLINE
  5
1fc
100
AcDbEntity
  8
0
 62
7
100
AcDbSpline
 70
8
 71
3
 72
8
 73
4
 74
0
 40
0
 40
0
 40
0
 40
0
 40
1
 40
1
 40
1
 40
1
 10
312.513218
 20
-4.619300
 30
0.0
 10
312.513218
 20
-5.121825
 30
0.0
 10
306.968003
 20
-10.734153
 30
0.0
 10
303.657056
 20
-13.582594
 30
0.0
  0
LWPOLYLINE
  5
1fd
100
AcDbEntity
  8
0
 62
7
100
AcDbPolyline
 90
3
 70
1
 10
313.218774
 20
46.891911
 30
0.0
 10
316.323218
 20
46.852400
 30
0.0
 10
316.250856
 20
42.195733
 30
0.0
  0
SPLINE
  5
1fe
100
AcDbEntity
  8
0
 62
7
100
AcDbSpline
 70
8
 71
3
 72
8
 73
4
 74
0
 40
0
 40
0
 40
0
 40
0
 40
1
 40
1
 40
1
 40
1
 10
298.653341
 20
-16.224278
 30
0.0
 10
294.915392
 20
-16.224278
 30
0.0
 10
292.797682
 20
-17.939992
 30
0.0
 10
294.378916
 20
-19.687230
 30
0.0
  0
SPLINE
  5
1ff
100
AcDbEntity
  8
0
 62
7
100
AcDbSpline
 70
8
 71
3
 72
8
 73
4
 74
0
 40
0
 40
0
 40
0
 40
0
 40
1
 40
1
 40
1
 40
1
 10
294.378916
 20
-19.687230
 30
0.0
 10
294.851582
 20
-20.209510
 30
0.0
 10
294.837668
 20
-20.258137
 30
0.0
 10
294.031726
 20
-20.900757
 30
0.0
  0
SPLINE
  5
200
100
AcDbEntity
  8
0
 62
7
100
AcDbSpline
 70
8
 71
3
 72
8
 73
4
 74
0
 40
0
 40
0
 40
0
 40
0
 40
1
 40
1
 40
1
 40
1
 10
294.031726
 20
-20.900757
 30
0.0
 10
292.867898
 20
-21.828760
 30
0.0
 10
286.647410
 20
-25.497508
 30
0.0
 10
283.599495
 20
-27.053540
 30
0.0
  0
SPLINE
  5
201
100
AcDbEntity
  8
0
 62
7
100
AcDbSpline
 70
8
 71
3
 72
8
 73
4
 74
0
 40
0
 40
0
 40
0
 40
0
 40
1
 40
1
 40
1
 40
1
 10
283.599495
 20
-27.053540
 30
0.0
 10
281.115939
 20
-28.321452
 30
0.0
 10
281.039542
 20
-28.340219
 30
0.0
 10
279.045614
 20
-28.171676
 30
0.0
  0
SPLINE
  5
202
100
AcDbEntity
  8
0
 62
7
100
AcDbSpline
 70
8
 71
3
 72
8
 73
4
 74
0
 40
0
 40
0
 40
0
 40
0
 40
1
 40
1
 40
1
 40
1
 10
279.045614
 20
-28.171676
 30
0.0
 10
277.930271
 20
-28.077386
 30
0.0
 10
276.682454
 20
-28.084385
 30
0.0
 10
276.272724
 20
-28.187198
 30
0.0
  0
SPLINE
  5
203
100
AcDbEntity
  8
0
 62
7
100
AcDbSpline
 70
8
 71
3
 72
8
 73
4
 74
0
 40
0
 40
0
 40
0
 40
0
 40
1
 40
1
 40
1
 40
1
 10
276.272724
 20
-28.187198
 30
0.0
 10
275.189837
 20
-28.458978
 30
0.0
 10
274.413218
 20
-29.360340
 30
0.0
 10
274.413218
 20
-30.345380
 30
0.0
  0
SPLINE
  5
204
100
AcDbEntity
  8
0
 62
7
100
AcDbSpline
 70
8
 71
3
 72
8
 73
4
 74
0
 40
0
 40
0
 40
0
 40
0
 40
1
 40
1
 40
1
 40
1
 10
274.413218
 20
-30.345380
 30
0.0
 10
274.413218
 20
-31.384522
 30
0.0
 10
273.901323
 20
-31.635136
 30
0.0
 10
267.216551
 20
-33.868896
 30
0.0
  0
SPLINE
  5
205
100
AcDbEntity
  8
0
 62
7
100
AcDbSpline
 70
8
 71
3
 72
8
 73
4
 74
0
 40
0
 40
0
 40
0
 40
0
 40
1
 40
1
 40
1
 40
1
 10
267.216551
 20
-33.868896
 30
0.0
 10
258.111611
 20
-36.911393
 30
0.0
 10
248.525651
 20
-38.923383
 30
0.0
 10
236.824915
 20
-40.247824
 30
0.0
  0
SPLINE
  5
206
100
AcDbEntity
  8
0
 62
7
100
AcDbSpline
 70
8
 71
3
 72
8
 73
4
 74
0
 40
0
 40
0
 40
0
 40
0
 40
1
 40
1
 40
1
 40
1
 10
236.824915
 20
-40.247824
 30
0.0
 10
232.592795
 20
-40.726868
 30
0.0
 10
229.509326
 20
-40.849070
 30
0.0
 10
219.803224
 20
-40.922420
 30
0.0
  0
SPLINE
  5
207
100
AcDbEntity
  8
0
 62
7
100
AcDbSpline
 70
8
 71
3
 72
8
 73
4
 74
0
 40
0
 40
0
 40
0
 40
0
 40
1
 40
1
 40
1
 40
1
 10
219.803224
 20
-40.922420
 30
0.0
 10
213.283890
 20
-40.971668
 30
0.0
 10
206.489390
 20
-40.900406
 30
0.0
 10
204.704335
 20
-40.764206
 30
0.0
  0
LWPOLYLINE
  5
208
100
AcDbEntity
  8
0
 62
7
100
AcDbPolyline
 90
3
 70
1
 10
303.657056
 20
-13.582594
 30
0.0
 10
300.586479
 20
-16.224278
 30
0.0
 10
298.653341
 20
-16.224278
 30
0.0
  0
SPLINE
  5
209
100
AcDbEntity
  8
0
 62
7
100
AcDbSpline
 70
8
 71
3
 72
8
 73
4
 74
0
 40
0
 40
0
 40
0
 40
0
 40
1
 40
1
 40
1
 40
1
 10
233.208717
 20
-31.496536
 30
0.0
 10
246.371674
 20
-29.606607
 30
0.0
 10
256.702955
 20
-26.445154
 30
0.0
 10
267.125902
 20
-21.117560
 30
0.0
  0
SPLINE
  5
20a
100
AcDbEntity
  8
0
 62
7
100
AcDbSpline
 70
8
 71
3
 72
8
 73
4
 74
0
 40
0
 40
0
 40
0
 40
0
 40
1
 40
1
 40
1
 40
1
 10
267.125902
 20
-21.117560
 30
0.0
 10
287.107997
 20
-10.903938
 30
0.0
 10
299.212085
 20
4.499695
 30
0.0
 10
300.973434
 20
21.956776
 30
0.0
  0
SPLINE
  5
20b
100
AcDbEntity
  8
0
 62
7
100
AcDbSpline
 70
8
 71
3
 72
8
 73
4
 74
0
 40
0
 40
0
 40
0
 40
0
 40
1
 40
1
 40
1
 40
1
 10
300.973434
 20
21.956776
 30
0.0
 10
302.109632
 20
33.217849
 30
0.0
 10
297.002708
 20
45.309886
 30
0.0
 10
286.823912
 20
55.459585
 30
0.0
  0
SPLINE
  5
20c
100
AcDbEntity
  8
0
 62
7
100
AcDbSpline
 70
8
 71
3
 72
8
 73
4
 74
0
 40
0
 40
0
 40
0
 40
0
 40
1
 40
1
 40
1
 40
1
 10
286.823912
 20
55.459585
 30
0.0
 10
273.249475
 20
68.995191
 30
0.0
 10
252.870095
 20
77.828442
 30
0.0
 10
229.116501
 20
80.472297
 30
0.0
  0
SPLINE
  5
20d
100
AcDbEntity
  8
0
 62
7
100
AcDbSpline
 70
8
 71
3
 72
8
 73
4
 74
0
 40
0
 40
0
 40
0
 40
0
 40
1
 40
1
 40
1
 40
1
 10
229.116501
 20
80.472297
 30
0.0
 10
223.974112
 20
81.044663
 30
0.0
 10
212.528142
 20
81.117417
 30
0.0
 10
207.808723
 20
80.607735
 30
0.0
  0
SPLINE
  5
20e
100
AcDbEntity
  8
0
 62
7
100
AcDbSpline
 70
8
 71
3
 72
8
 73
4
 74
0
 40
0
 40
0
 40
0
 40
0
 40
1
 40
1
 40
1
 40
1
 10
207.808723
 20
80.607735
 30
0.0
 10
194.244674
 20
79.142867
 30
0.0
 10
183.081176
 20
76.217120
 30
0.0
 10
172.248723
 20
71.288117
 30
0.0
  0
SPLINE
  5
20f
100
AcDbEntity
  8
0
 62
7
100
AcDbSpline
 70
8
 71
3
 72
8
 73
4
 74
0
 40
0
 40
0
 40
0
 40
0
 40
1
 40
1
 40
1
 40
1
 10
172.248723
 20
71.288117
 30
0.0
 10
155.400192
 20
63.621677
 30
0.0
 10
142.356134
 20
51.341314
 30
0.0
 10
137.253500
 20
38.341819
 30
0.0
  0
SPLINE
  5
210
100
AcDbEntity
  8
0
 62
7
100
AcDbSpline
 70
8
 71
3
 72
8
 73
4
 74
0
 40
0
 40
0
 40
0
 40
0
 40
1
 40
1
 40
1
 40
1
 10
137.253500
 20
38.341819
 30
0.0
 10
135.426252
 20
33.686705
 30
0.0
 10
134.963521
 20
31.385013
 30
0.0
 10
134.794131
 20
26.108124
 30
0.0
  0
SPLINE
  5
211
100
AcDbEntity
  8
0
 62
7
100
AcDbSpline
 70
8
 71
3
 72
8
 73
4
 74
0
 40
0
 40
0
 40
0
 40
0
 40
1
 40
1
 40
1
 40
1
 10
134.794131
 20
26.108124
 30
0.0
 10
134.665099
 20
22.089054
 30
0.0
 10
134.728430
 20
21.012319
 30
0.0
 10
135.256044
 20
18.254585
 30
0.0
  0
SPLINE
  5
212
100
AcDbEntity
  8
0
 62
7
100
AcDbSpline
 70
8
 71
3
 72
8
 73
4
 74
0
 40
0
 40
0
 40
0
 40
0
 40
1
 40
1
 40
1
 40
1
 10
135.256044
 20
18.254585
 30
0.0
 10
137.207893
 20
8.052534
 30
0.0
 10
142.286877
 20
-0.666722
 30
0.0
 10
151.167677
 20
-9.061422
 30
0.0
  0
SPLINE
  5
213
100
AcDbEntity
  8
0
 62
7
100
AcDbSpline
 70
8
 71
3
 72
8
 73
4
 74
0
 40
0
 40
0
 40
0
 40
0
 40
1
 40
1
 40
1
 40
1
 10
151.167677
 20
-9.061422
 30
0.0
 10
163.841486
 20
-21.041529
 30
0.0
 10
183.550571
 20
-29.388252
 30
0.0
 10
204.704278
 20
-31.733942
 30
0.0
  0
SPLINE
  5
214
100
AcDbEntity
  8
0
 62
7
100
AcDbSpline
 70
8
 71
3
 72
8
 73
4
 74
0
 40
0
 40
0
 40
0
 40
0
 40
1
 40
1
 40
1
 40
1
 10
204.704278
 20
-31.733942
 30
0.0
 10
206.178889
 20
-31.897461
 30
0.0
 10
207.829889
 20
-32.080793
 30
0.0
 10
208.373167
 20
-32.141386
 30
0.0
  0
SPLINE
  5
215
100
AcDbEntity
  8
0
 62
7
100
AcDbSpline
 70
8
 71
3
 72
8
 73
4
 74
0
 40
0
 40
0
 40
0
 40
0
 40
1
 40
1
 40
1
 40
1
 10
208.373167
 20
-32.141386
 30
0.0
 10
208.916445
 20
-32.201951
 30
0.0
 10
213.805945
 20
-32.213860
 30
0.0
 10
219.238723
 20
-32.167915
 30
0.0
  0
SPLINE
  5
216
100
AcDbEntity
  8
0
 62
7
100
AcDbSpline
 70
8
 71
3
 72
8
 73
4
 74
0
 40
0
 40
0
 40
0
 40
0
 40
1
 40
1
 40
1
 40
1
 10
219.238723
 20
-32.167915
 30
0.0
 10
227.426610
 20
-32.098516
 30
0.0
 10
229.816598
 20
-31.983680
 30
0.0
 10
233.208717
 20
-31.496649
 30
0.0
  0
LWPOLYLINE
  5
217
100
AcDbEntity
  8
0
 62
7
100
AcDbPolyline
 90
2
 70
1
 10
204.704335
 20
-40.764206
 30
0.0
 10
204.704278
 20
-40.764178
 30
0.0
  0
SPLINE
  5
218
100
AcDbEntity
  8
0
 62
7
100
AcDbSpline
 70
8
 71
3
 72
8
 73
4
 74
0
 40
0
 40
0
 40
0
 40
0
 40
1
 40
1
 40
1
 40
1
 10
209.078723
 20
-28.323596
 30
0.0
 10
185.891929
 20
-26.693170
 30
0.0
 10
164.155964
 20
-17.993840
 30
0.0
 10
150.698567
 20
-4.958249
 30
0.0
  0
SPLINE
  5
219
100
AcDbEntity
  8
0
 62
7
100
AcDbSpline
 70
8
 71
3
 72
8
 73
4
 74
0
 40
0
 40
0
 40
0
 40
0
 40
1
 40
1
 40
1
 40
1
 10
150.698567
 20
-4.958249
 30
0.0
 10
141.688030
 20
3.769868
 30
0.0
 10
136.694192
 20
14.353709
 30
0.0
 10
136.689846
 20
24.731585
 30
0.0
  0
SPLINE
  5
21a
100
AcDbEntity
  8
0
 62
7
100
AcDbSpline
 70
8
 71
3
 72
8
 73
4
 74
0
 40
0
 40
0
 40
0
 40
0
 40
1
 40
1
 40
1
 40
1
 10
136.689846
 20
24.731585
 30
0.0
 10
136.680250
 20
47.539329
 30
0.0
 10
163.241632
 20
69.162524
 30
0.0
 10
198.495389
 20
75.046600
 30
0.0
  0
SPLINE
  5
21b
100
AcDbEntity
  8
0
 62
7
100
AcDbSpline
 70
8
 71
3
 72
8
 73
4
 74
0
 40
0
 40
0
 40
0
 40
0
 40
1
 40
1
 40
1
 40
1
 10
198.495389
 20
75.046600
 30
0.0
 10
205.974450
 20
76.294903
 30
0.0
 10
215.885996
 20
77.072628
 30
0.0
 10
220.508723
 20
76.773910
 30
0.0
  0
SPLINE
  5
21c
100
AcDbEntity
  8
0
 62
7
100
AcDbSpline
 70
8
 71
3
 72
8
 73
4
 74
0
 40
0
 40
0
 40
0
 40
0
 40
1
 40
1
 40
1
 40
1
 10
220.508723
 20
76.773910
 30
0.0
 10
230.746148
 20
76.112373
 30
0.0
 10
235.408639
 20
75.534743
 30
0.0
 10
242.239828
 20
74.081677
 30
0.0
  0
SPLINE
  5
21d
100
AcDbEntity
  8
0
 62
7
100
AcDbSpline
 70
8
 71
3
 72
8
 73
4
 74
0
 40
0
 40
0
 40
0
 40
0
 40
1
 40
1
 40
1
 40
1
 10
242.239828
 20
74.081677
 30
0.0
 10
271.765437
 20
67.801247
 30
0.0
 10
294.388201
 20
50.329208
 30
0.0
 10
298.382549
 20
30.721452
 30
0.0
  0
SPLINE
  5
21e
100
AcDbEntity
  8
0
 62
7
100
AcDbSpline
 70
8
 71
3
 72
8
 73
4
 74
0
 40
0
 40
0
 40
0
 40
0
 40
1
 40
1
 40
1
 40
1
 10
298.382549
 20
30.721452
 30
0.0
 10
300.238358
 20
21.611449
 30
0.0
 10
297.676824
 20
11.200525
 30
0.0
 10
291.416514
 20
2.409105
 30
0.0
  0
SPLINE
  5
21f
100
AcDbEntity
  8
0
 62
7
100
AcDbSpline
 70
8
 71
3
 72
8
 73
4
 74
0
 40
0
 40
0
 40
0
 40
0
 40
1
 40
1
 40
1
 40
1
 10
291.416514
 20
2.409105
 30
0.0
 10
289.172029
 20
-0.742809
 30
0.0
 10
283.951031
 20
-6.233329
 30
0.0
 10
280.763162
 20
-8.794186
 30
0.0
  0
SPLINE
  5
220
100
AcDbEntity
  8
0
 62
7
100
AcDbSpline
 70
8
 71
3
 72
8
 73
4
 74
0
 40
0
 40
0
 40
0
 40
0
 40
1
 40
1
 40
1
 40
1
 10
280.763162
 20
-8.794186
 30
0.0
 10
263.168412
 20
-22.928270
 30
0.0
 10
236.330546
 20
-30.239857
 30
0.0
 10
209.078723
 20
-28.323596
 30
0.0
  0
LWPOLYLINE
  5
221
100
AcDbEntity
  8
0
 62
7
100
AcDbPolyline
 90
2
 70
1
 10
233.208717
 20
-31.496649
 30
0.0
 10
233.208717
 20
-31.496536
 30
0.0
  0
SPLINE
  5
222
100
AcDbEntity
  8
0
 62
7
100
AcDbSpline
 70
8
 71
3
 72
8
 73
4
 74
0
 40
0
 40
0
 40
0
 40
0
 40
1
 40
1
 40
1
 40
1
 10
195.290542
 20
-13.579687
 30
0.0
 10
196.242150
 20
-12.761158
 30
0.0
 10
196.355657
 20
-11.207637
 30
0.0
 10
195.530473
 20
-10.295805
 30
0.0
  0
SPLINE
  5
223
100
AcDbEntity
  8
0
 62
7
100
AcDbSpline
 70
8
 71
3
 72
8
 73
4
 74
0
 40
0
 40
0
 40
0
 40
0
 40
1
 40
1
 40
1
 40
1
 10
195.530473
 20
-10.295805
 30
0.0
 10
195.086518
 20
-9.805247
 30
0.0
 10
195.052041
 20
-9.606478
 30
0.0
 10
195.332917
 20
-9.156728
 30
0.0
  0
SPLINE
  5
224
100
AcDbEntity
  8
0
 62
7
100
AcDbSpline
 70
8
 71
3
 72
8
 73
4
 74
0
 40
0
 40
0
 40
0
 40
0
 40
1
 40
1
 40
1
 40
1
 10
195.332917
 20
-9.156728
 30
0.0
 10
195.861294
 20
-8.310654
 30
0.0
 10
195.736808
 20
-7.351296
 30
0.0
 10
195.010052
 20
-6.668544
 30
0.0
  0
SPLINE
  5
225
100
AcDbEntity
  8
0
 62
7
100
AcDbSpline
 70
8
 71
3
 72
8
 73
4
 74
0
 40
0
 40
0
 40
0
 40
0
 40
1
 40
1
 40
1
 40
1
 10
195.010052
 20
-6.668544
 30
0.0
 10
194.391382
 20
-6.087336
 30
0.0
 10
194.121845
 20
-6.050929
 30
0.0
 10
190.988386
 20
-6.125464
 30
0.0
  0
LWPOLYLINE
  5
226
100
AcDbEntity
  8
0
 62
7
100
AcDbPolyline
 90
2
 70
1
 10
209.078723
 20
-28.323596
 30
0.0
 10
209.078723
 20
-28.323596
 30
0.0
  0
SPLINE
  5
227
100
AcDbEntity
  8
0
 62
7
100
AcDbSpline
 70
8
 71
3
 72
8
 73
4
 74
0
 40
0
 40
0
 40
0
 40
0
 40
1
 40
1
 40
1
 40
1
 10
187.550431
 20
-9.859292
 30
0.0
 10
187.506760
 20
-11.868997
 30
0.0
 10
187.534513
 20
-13.678747
 30
0.0
 10
187.612130
 20
-13.880959
 30
0.0
  0
SPLINE
  5
228
100
AcDbEntity
  8
0
 62
7
100
AcDbSpline
 70
8
 71
3
 72
8
 73
4
 74
0
 40
0
 40
0
 40
0
 40
0
 40
1
 40
1
 40
1
 40
1
 10
187.612130
 20
-13.880959
 30
0.0
 10
187.717196
 20
-14.154771
 30
0.0
 10
188.616367
 20
-14.248666
 30
0.0
 10
191.133016
 20
-14.248666
 30
0.0
  0
SPLINE
  5
229
100
AcDbEntity
  8
0
 62
7
100
AcDbSpline
 70
8
 71
3
 72
8
 73
4
 74
0
 40
0
 40
0
 40
0
 40
0
 40
1
 40
1
 40
1
 40
1
 10
191.133016
 20
-14.248666
 30
0.0
 10
194.281964
 20
-14.248666
 30
0.0
 10
194.565922
 20
-14.202974
 30
0.0
 10
195.290542
 20
-13.579687
 30
0.0
  0
LWPOLYLINE
  5
22a
100
AcDbEntity
  8
0
 62
7
100
AcDbPolyline
 90
3
 70
1
 10
190.988386
 20
-6.125464
 30
0.0
 10
187.629834
 20
-6.205333
 30
0.0
 10
187.550431
 20
-9.859292
 30
0.0
  0
SPLINE
  5
22b
100
AcDbEntity
  8
0
 62
7
100
AcDbSpline
 70
8
 71
3
 72
8
 73
4
 74
0
 40
0
 40
0
 40
0
 40
0
 40
1
 40
1
 40
1
 40
1
 10
190.099278
 20
-12.666670
 30
0.0
 10
189.905251
 20
-12.579576
 30
0.0
 10
189.746501
 20
-12.137898
 30
0.0
 10
189.746501
 20
-11.685157
 30
0.0
  0
LWPOLYLINE
  5
22c
100
AcDbEntity
  8
0
 62
7
100
AcDbPolyline
 90
2
 70
1
 10
195.290542
 20
-13.579687
 30
0.0
 10
195.290542
 20
-13.579687
 30
0.0
  0
SPLINE
  5
22d
100
AcDbEntity
  8
0
 62
7
100
AcDbSpline
 70
8
 71
3
 72
8
 73
4
 74
0
 40
0
 40
0
 40
0
 40
0
 40
1
 40
1
 40
1
 40
1
 10
191.546390
 20
-10.862000
 30
0.0
 10
193.583447
 20
-10.862000
 30
0.0
 10
194.429645
 20
-11.379821
 30
0.0
 10
193.656331
 20
-12.153138
 30
0.0
  0
SPLINE
  5
22e
100
AcDbEntity
  8
0
 62
7
100
AcDbSpline
 70
8
 71
3
 72
8
 73
4
 74
0
 40
0
 40
0
 40
0
 40
0
 40
1
 40
1
 40
1
 40
1
 10
193.656331
 20
-12.153138
 30
0.0
 10
193.225609
 20
-12.583837
 30
0.0
 10
190.720447
 20
-12.945533
 30
0.0
 10
190.099278
 20
-12.666670
 30
0.0
  0
LWPOLYLINE
  5
22f
100
AcDbEntity
  8
0
 62
7
100
AcDbPolyline
 90
3
 70
1
 10
189.746501
 20
-11.685157
 30
0.0
 10
189.746501
 20
-10.862000
 30
0.0
 10
191.546390
 20
-10.862000
 30
0.0
  0
SPLINE
  5
230
100
AcDbEntity
  8
0
 62
7
100
AcDbSpline
 70
8
 71
3
 72
8
 73
4
 74
0
 40
0
 40
0
 40
0
 40
0
 40
1
 40
1
 40
1
 40
1
 10
189.854002
 20
-8.759529
 30
0.0
 10
189.508579
 20
-7.859353
 30
0.0
 10
189.960769
 20
-7.475192
 30
0.0
 10
191.360422
 20
-7.479651
 30
0.0
  0
SPLINE
  5
231
100
AcDbEntity
  8
0
 62
7
100
AcDbSpline
 70
8
 71
3
 72
8
 73
4
 74
0
 40
0
 40
0
 40
0
 40
0
 40
1
 40
1
 40
1
 40
1
 10
191.360422
 20
-7.479651
 30
0.0
 10
192.949384
 20
-7.484731
 30
0.0
 10
193.508715
 20
-7.767913
 30
0.0
 10
193.369859
 20
-8.496949
 30
0.0
  0
SPLINE
  5
232
100
AcDbEntity
  8
0
 62
7
100
AcDbSpline
 70
8
 71
3
 72
8
 73
4
 74
0
 40
0
 40
0
 40
0
 40
0
 40
1
 40
1
 40
1
 40
1
 10
193.369859
 20
-8.496949
 30
0.0
 10
193.287272
 20
-8.930527
 30
0.0
 10
192.971942
 20
-9.043049
 30
0.0
 10
191.645345
 20
-9.112306
 30
0.0
  0
SPLINE
  5
233
100
AcDbEntity
  8
0
 62
7
100
AcDbSpline
 70
8
 71
3
 72
8
 73
4
 74
0
 40
0
 40
0
 40
0
 40
0
 40
1
 40
1
 40
1
 40
1
 10
191.645345
 20
-9.112306
 30
0.0
 10
190.384684
 20
-9.178121
 30
0.0
 10
189.984377
 20
-9.099324
 30
0.0
 10
189.854002
 20
-8.759529
 30
0.0
  0
LWPOLYLINE
  5
234
100
AcDbEntity
  8
0
 62
7
100
AcDbPolyline
 90
2
 70
1
 10
190.099278
 20
-12.666670
 30
0.0
 10
190.099278
 20
-12.666670
 30
0.0
  0
SPLINE
  5
235
100
AcDbEntity
  8
0
 62
7
100
AcDbSpline
 70
8
 71
3
 72
8
 73
4
 74
0
 40
0
 40
0
 40
0
 40
0
 40
1
 40
1
 40
1
 40
1
 10
202.395348
 20
-12.843087
 30
0.0
 10
202.579337
 20
-10.257000
 30
0.0
 10
203.908849
 20
-10.171458
 30
0.0
 10
205.770869
 20
-12.625888
 30
0.0
  0
SPLINE
  5
236
100
AcDbEntity
  8
0
 62
7
100
AcDbSpline
 70
8
 71
3
 72
8
 73
4
 74
0
 40
0
 40
0
 40
0
 40
0
 40
1
 40
1
 40
1
 40
1
 10
205.770869
 20
-12.625888
 30
0.0
 10
206.848699
 20
-14.046652
 30
0.0
 10
207.122446
 20
-14.248666
 30
0.0
 10
207.969784
 20
-14.248666
 30
0.0
  0
SPLINE
  5
237
100
AcDbEntity
  8
0
 62
7
100
AcDbSpline
 70
8
 71
3
 72
8
 73
4
 74
0
 40
0
 40
0
 40
0
 40
0
 40
1
 40
1
 40
1
 40
1
 10
207.969784
 20
-14.248666
 30
0.0
 10
209.158380
 20
-14.248666
 30
0.0
 10
209.230841
 20
-13.748794
 30
0.0
 10
208.232056
 20
-12.439311
 30
0.0
  0
SPLINE
  5
238
100
AcDbEntity
  8
0
 62
7
100
AcDbSpline
 70
8
 71
3
 72
8
 73
4
 74
0
 40
0
 40
0
 40
0
 40
0
 40
1
 40
1
 40
1
 40
1
 10
208.232056
 20
-12.439311
 30
0.0
 10
207.844001
 20
-11.930549
 30
0.0
 10
207.526501
 20
-11.354054
 30
0.0
 10
207.526501
 20
-11.158220
 30
0.0
  0
SPLINE
  5
239
100
AcDbEntity
  8
0
 62
7
100
AcDbSpline
 70
8
 71
3
 72
8
 73
4
 74
0
 40
0
 40
0
 40
0
 40
0
 40
1
 40
1
 40
1
 40
1
 10
207.526501
 20
-11.158220
 30
0.0
 10
207.526501
 20
-10.962358
 30
0.0
 10
207.844001
 20
-10.552374
 30
0.0
 10
208.232056
 20
-10.247150
 30
0.0
  0
SPLINE
  5
23a
100
AcDbEntity
  8
0
 62
7
100
AcDbSpline
 70
8
 71
3
 72
8
 73
4
 74
0
 40
0
 40
0
 40
0
 40
0
 40
1
 40
1
 40
1
 40
1
 10
208.232056
 20
-10.247150
 30
0.0
 10
209.212747
 20
-9.475724
 30
0.0
 10
209.219159
 20
-7.731224
 30
0.0
 10
208.244869
 20
-6.756964
 30
0.0
  0
SPLINE
  5
23b
100
AcDbEntity
  8
0
 62
7
100
AcDbSpline
 70
8
 71
3
 72
8
 73
4
 74
0
 40
0
 40
0
 40
0
 40
0
 40
1
 40
1
 40
1
 40
1
 10
208.244869
 20
-6.756964
 30
0.0
 10
207.583653
 20
-6.095718
 30
0.0
 10
207.392552
 20
-6.064222
 30
0.0
 10
204.041745
 20
-6.064222
 30
0.0
  0
SPLINE
  5
23c
100
AcDbEntity
  8
0
 62
7
100
AcDbSpline
 70
8
 71
3
 72
8
 73
4
 74
0
 40
0
 40
0
 40
0
 40
0
 40
1
 40
1
 40
1
 40
1
 10
204.041745
 20
-6.064222
 30
0.0
 10
201.101057
 20
-6.064222
 30
0.0
 10
200.503533
 20
-6.136668
 30
0.0
 10
200.360029
 20
-6.510641
 30
0.0
  0
SPLINE
  5
23d
100
AcDbEntity
  8
0
 62
7
100
AcDbSpline
 70
8
 71
3
 72
8
 73
4
 74
0
 40
0
 40
0
 40
0
 40
0
 40
1
 40
1
 40
1
 40
1
 10
200.360029
 20
-6.510641
 30
0.0
 10
200.265809
 20
-6.756174
 30
0.0
 10
200.188723
 20
-8.445274
 30
0.0
 10
200.188723
 20
-10.264196
 30
0.0
  0
SPLINE
  5
23e
100
AcDbEntity
  8
0
 62
7
100
AcDbSpline
 70
8
 71
3
 72
8
 73
4
 74
0
 40
0
 40
0
 40
0
 40
0
 40
1
 40
1
 40
1
 40
1
 10
200.188723
 20
-10.264196
 30
0.0
 10
200.188723
 20
-13.838513
 30
0.0
 10
200.366613
 20
-14.334123
 30
0.0
 10
201.597853
 20
-14.190246
 30
0.0
  0
SPLINE
  5
23f
100
AcDbEntity
  8
0
 62
7
100
AcDbSpline
 70
8
 71
3
 72
8
 73
4
 74
0
 40
0
 40
0
 40
0
 40
0
 40
1
 40
1
 40
1
 40
1
 10
201.597853
 20
-14.190246
 30
0.0
 10
202.219444
 20
-14.117602
 30
0.0
 10
202.316317
 20
-13.953970
 30
0.0
 10
202.395348
 20
-12.843087
 30
0.0
  0
LWPOLYLINE
  5
240
100
AcDbEntity
  8
0
 62
7
100
AcDbPolyline
 90
2
 70
1
 10
189.854002
 20
-8.759529
 30
0.0
 10
189.854002
 20
-8.759529
 30
0.0
  0
SPLINE
  5
241
100
AcDbEntity
  8
0
 62
7
100
AcDbSpline
 70
8
 71
3
 72
8
 73
4
 74
0
 40
0
 40
0
 40
0
 40
0
 40
1
 40
1
 40
1
 40
1
 10
202.634650
 20
-9.262759
 30
0.0
 10
202.275367
 20
-8.903462
 30
0.0
 10
202.448995
 20
-7.816991
 30
0.0
 10
202.892917
 20
-7.646642
 30
0.0
  0
SPLINE
  5
242
100
AcDbEntity
  8
0
 62
7
100
AcDbSpline
 70
8
 71
3
 72
8
 73
4
 74
0
 40
0
 40
0
 40
0
 40
0
 40
1
 40
1
 40
1
 40
1
 10
202.892917
 20
-7.646642
 30
0.0
 10
203.600301
 20
-7.375200
 30
0.0
 10
205.535778
 20
-7.447365
 30
0.0
 10
206.133943
 20
-7.767489
 30
0.0
  0
SPLINE
  5
243
100
AcDbEntity
  8
0
 62
7
100
AcDbSpline
 70
8
 71
3
 72
8
 73
4
 74
0
 40
0
 40
0
 40
0
 40
0
 40
1
 40
1
 40
1
 40
1
 10
206.133943
 20
-7.767489
 30
0.0
 10
206.792508
 20
-8.119957
 30
0.0
 10
206.853152
 20
-9.041779
 30
0.0
 10
206.233418
 20
-9.279580
 30
0.0
  0
SPLINE
  5
244
100
AcDbEntity
  8
0
 62
7
100
AcDbSpline
 70
8
 71
3
 72
8
 73
4
 74
0
 40
0
 40
0
 40
0
 40
0
 40
1
 40
1
 40
1
 40
1
 10
206.233418
 20
-9.279580
 30
0.0
 10
205.630636
 20
-9.510889
 30
0.0
 10
202.869879
 20
-9.497991
 30
0.0
 10
202.634650
 20
-9.262646
 30
0.0
  0
LWPOLYLINE
  5
245
100
AcDbEntity
  8
0
 62
7
100
AcDbPolyline
 90
2
 70
1
 10
202.395348
 20
-12.843087
 30
0.0
 10
202.395348
 20
-12.843087
 30
0.0
  0
SPLINE
  5
246
100
AcDbEntity
  8
0
 62
7
100
AcDbSpline
 70
8
 71
3
 72
8
 73
4
 74
0
 40
0
 40
0
 40
0
 40
0
 40
1
 40
1
 40
1
 40
1
 10
215.313565
 20
-13.543111
 30
0.0
 10
215.731330
 20
-12.905514
 30
0.0
 10
215.959913
 20
-12.837555
 30
0.0
 10
217.686501
 20
-12.837555
 30
0.0
  0
SPLINE
  5
247
100
AcDbEntity
  8
0
 62
7
100
AcDbSpline
 70
8
 71
3
 72
8
 73
4
 74
0
 40
0
 40
0
 40
0
 40
0
 40
1
 40
1
 40
1
 40
1
 10
217.686501
 20
-12.837555
 30
0.0
 10
219.413088
 20
-12.837555
 30
0.0
 10
219.641671
 20
-12.905514
 30
0.0
 10
220.059436
 20
-13.543111
 30
0.0
  0
SPLINE
  5
248
100
AcDbEntity
  8
0
 62
7
100
AcDbSpline
 70
8
 71
3
 72
8
 73
4
 74
0
 40
0
 40
0
 40
0
 40
0
 40
1
 40
1
 40
1
 40
1
 10
220.059436
 20
-13.543111
 30
0.0
 10
220.636107
 20
-14.423221
 30
0.0
 10
222.499343
 20
-14.587361
 30
0.0
 10
222.462310
 20
-13.754777
 30
0.0
  0
SPLINE
  5
249
100
AcDbEntity
  8
0
 62
7
100
AcDbSpline
 70
8
 71
3
 72
8
 73
4
 74
0
 40
0
 40
0
 40
0
 40
0
 40
1
 40
1
 40
1
 40
1
 10
222.462310
 20
-13.754777
 30
0.0
 10
222.450231
 20
-13.483138
 30
0.0
 10
221.656478
 20
-11.673388
 30
0.0
 10
220.698421
 20
-9.733111
 30
0.0
  0
LWPOLYLINE
  5
24a
100
AcDbEntity
  8
0
 62
7
100
AcDbPolyline
 90
2
 70
1
 10
202.634650
 20
-9.262646
 30
0.0
 10
202.634650
 20
-9.262759
 30
0.0
  0
SPLINE
  5
24b
100
AcDbEntity
  8
0
 62
7
100
AcDbSpline
 70
8
 71
3
 72
8
 73
4
 74
0
 40
0
 40
0
 40
0
 40
0
 40
1
 40
1
 40
1
 40
1
 10
214.715098
 20
-9.749226
 30
0.0
 10
213.690818
 20
-11.793276
 30
0.0
 10
212.920374
 20
-13.641860
 30
0.0
 10
213.003000
 20
-13.857196
 30
0.0
  0
SPLINE
  5
24c
100
AcDbEntity
  8
0
 62
7
100
AcDbSpline
 70
8
 71
3
 72
8
 73
4
 74
0
 40
0
 40
0
 40
0
 40
0
 40
1
 40
1
 40
1
 40
1
 10
213.003000
 20
-13.857196
 30
0.0
 10
213.264790
 20
-14.539383
 30
0.0
 10
214.797262
 20
-14.331103
 30
0.0
 10
215.313565
 20
-13.543111
 30
0.0
  0
LWPOLYLINE
  5
24d
100
AcDbEntity
  8
0
 62
7
100
AcDbPolyline
 90
5
 70
1
 10
220.698421
 20
-9.733111
 30
0.0
 10
218.956501
 20
-6.205333
 30
0.0
 10
217.766965
 20
-6.119029
 30
0.0
 10
216.577429
 20
-6.032754
 30
0.0
 10
214.715098
 20
-9.749226
 30
0.0
  0
SPLINE
  5
24e
100
AcDbEntity
  8
0
 62
7
100
AcDbSpline
 70
8
 71
3
 72
8
 73
4
 74
0
 40
0
 40
0
 40
0
 40
0
 40
1
 40
1
 40
1
 40
1
 10
216.740602
 20
-10.929761
 30
0.0
 10
216.545798
 20
-10.614575
 30
0.0
 10
217.328135
 20
-8.886444
 30
0.0
 10
217.665630
 20
-8.886444
 30
0.0
  0
SPLINE
  5
24f
100
AcDbEntity
  8
0
 62
7
100
AcDbSpline
 70
8
 71
3
 72
8
 73
4
 74
0
 40
0
 40
0
 40
0
 40
0
 40
1
 40
1
 40
1
 40
1
 10
217.665630
 20
-8.886444
 30
0.0
 10
218.053607
 20
-8.886444
 30
0.0
 10
218.882508
 20
-10.525083
 30
0.0
 10
218.669156
 20
-10.870297
 30
0.0
  0
SPLINE
  5
250
100
AcDbEntity
  8
0
 62
7
100
AcDbSpline
 70
8
 71
3
 72
8
 73
4
 74
0
 40
0
 40
0
 40
0
 40
0
 40
1
 40
1
 40
1
 40
1
 10
218.669156
 20
-10.870297
 30
0.0
 10
218.469543
 20
-11.193272
 30
0.0
 10
216.932747
 20
-11.240657
 30
0.0
 10
216.740602
 20
-10.929761
 30
0.0
  0
LWPOLYLINE
  5
251
100
AcDbEntity
  8
0
 62
7
100
AcDbPolyline
 90
2
 70
1
 10
215.313565
 20
-13.543111
 30
0.0
 10
215.313565
 20
-13.543111
 30
0.0
  0
SPLINE
  5
252
100
AcDbEntity
  8
0
 62
7
100
AcDbSpline
 70
8
 71
3
 72
8
 73
4
 74
0
 40
0
 40
0
 40
0
 40
0
 40
1
 40
1
 40
1
 40
1
 10
228.354501
 20
-13.910000
 30
0.0
 10
228.556052
 20
-13.708465
 30
0.0
 10
228.693167
 20
-12.737225
 30
0.0
 10
228.693167
 20
-11.511111
 30
0.0
  0
SPLINE
  5
253
100
AcDbEntity
  8
0
 62
7
100
AcDbSpline
 70
8
 71
3
 72
8
 73
4
 74
0
 40
0
 40
0
 40
0
 40
0
 40
1
 40
1
 40
1
 40
1
 10
228.693167
 20
-11.511111
 30
0.0
 10
228.693167
 20
-10.377988
 30
0.0
 10
228.804560
 20
-9.450888
 30
0.0
 10
228.940704
 20
-9.450888
 30
0.0
  0
SPLINE
  5
254
100
AcDbEntity
  8
0
 62
7
100
AcDbSpline
 70
8
 71
3
 72
8
 73
4
 74
0
 40
0
 40
0
 40
0
 40
0
 40
1
 40
1
 40
1
 40
1
 10
228.940704
 20
-9.450888
 30
0.0
 10
229.076851
 20
-9.450888
 30
0.0
 10
230.168289
 20
-10.530388
 30
0.0
 10
231.366119
 20
-11.849777
 30
0.0
  0
SPLINE
  5
255
100
AcDbEntity
  8
0
 62
7
100
AcDbSpline
 70
8
 71
3
 72
8
 73
4
 74
0
 40
0
 40
0
 40
0
 40
0
 40
1
 40
1
 40
1
 40
1
 10
231.366119
 20
-11.849777
 30
0.0
 10
233.063486
 20
-13.719415
 30
0.0
 10
233.709379
 20
-14.247707
 30
0.0
 10
234.293579
 20
-14.244348
 30
0.0
  0
SPLINE
  5
256
100
AcDbEntity
  8
0
 62
7
100
AcDbSpline
 70
8
 71
3
 72
8
 73
4
 74
0
 40
0
 40
0
 40
0
 40
0
 40
1
 40
1
 40
1
 40
1
 10
234.293579
 20
-14.244348
 30
0.0
 10
235.717447
 20
-14.236164
 30
0.0
 10
235.771803
 20
-14.070302
 30
0.0
 10
235.686685
 20
-9.993404
 30
0.0
  0
LWPOLYLINE
  5
257
100
AcDbEntity
  8
0
 62
7
100
AcDbPolyline
 90
2
 70
1
 10
216.740602
 20
-10.929761
 30
0.0
 10
216.740602
 20
-10.929761
 30
0.0
  0
SPLINE
  5
258
100
AcDbEntity
  8
0
 62
7
100
AcDbSpline
 70
8
 71
3
 72
8
 73
4
 74
0
 40
0
 40
0
 40
0
 40
0
 40
1
 40
1
 40
1
 40
1
 10
233.550093
 20
-8.533666
 30
0.0
 10
233.504994
 20
-9.814250
 30
0.0
 10
233.373196
 20
-10.862000
 30
0.0
 10
233.257203
 20
-10.862000
 30
0.0
  0
SPLINE
  5
259
100
AcDbEntity
  8
0
 62
7
100
AcDbSpline
 70
8
 71
3
 72
8
 73
4
 74
0
 40
0
 40
0
 40
0
 40
0
 40
1
 40
1
 40
1
 40
1
 10
233.257203
 20
-10.862000
 30
0.0
 10
233.141181
 20
-10.862000
 30
0.0
 10
232.058295
 20
-9.782500
 30
0.0
 10
230.850781
 20
-8.463111
 30
0.0
  0
SPLINE
  5
25a
100
AcDbEntity
  8
0
 62
7
100
AcDbSpline
 70
8
 71
3
 72
8
 73
4
 74
0
 40
0
 40
0
 40
0
 40
0
 40
1
 40
1
 40
1
 40
1
 10
230.850781
 20
-8.463111
 30
0.0
 10
228.938500
 20
-6.373678
 30
0.0
 10
228.534211
 20
-6.064222
 30
0.0
 10
227.716647
 20
-6.064222
 30
0.0
  0
SPLINE
  5
25b
100
AcDbEntity
  8
0
 62
7
100
AcDbSpline
 70
8
 71
3
 72
8
 73
4
 74
0
 40
0
 40
0
 40
0
 40
0
 40
1
 40
1
 40
1
 40
1
 10
227.716647
 20
-6.064222
 30
0.0
 10
227.121071
 20
-6.064222
 30
0.0
 10
226.715391
 20
-6.227403
 30
0.0
 10
226.606695
 20
-6.510641
 30
0.0
  0
SPLINE
  5
25c
100
AcDbEntity
  8
0
 62
7
100
AcDbSpline
 70
8
 71
3
 72
8
 73
4
 74
0
 40
0
 40
0
 40
0
 40
0
 40
1
 40
1
 40
1
 40
1
 10
226.606695
 20
-6.510641
 30
0.0
 10
226.512476
 20
-6.756174
 30
0.0
 10
226.435389
 20
-8.445274
 30
0.0
 10
226.435389
 20
-10.264196
 30
0.0
  0
SPLINE
  5
25d
100
AcDbEntity
  8
0
 62
7
100
AcDbSpline
 70
8
 71
3
 72
8
 73
4
 74
0
 40
0
 40
0
 40
0
 40
0
 40
1
 40
1
 40
1
 40
1
 10
226.435389
 20
-10.264196
 30
0.0
 10
226.435389
 20
-13.631277
 30
0.0
 10
226.610314
 20
-14.248666
 30
0.0
 10
227.564278
 20
-14.248666
 30
0.0
  0
SPLINE
  5
25e
100
AcDbEntity
  8
0
 62
7
100
AcDbSpline
 70
8
 71
3
 72
8
 73
4
 74
0
 40
0
 40
0
 40
0
 40
0
 40
1
 40
1
 40
1
 40
1
 10
227.564278
 20
-14.248666
 30
0.0
 10
227.812634
 20
-14.248666
 30
0.0
 10
228.168234
 20
-14.096266
 30
0.0
 10
228.354501
 20
-13.910000
 30
0.0
  0
LWPOLYLINE
  5
25f
100
AcDbEntity
  8
0
 62
7
100
AcDbPolyline
 90
5
 70
1
 10
235.686685
 20
-9.993404
 30
0.0
 10
235.607606
 20
-6.205333
 30
0.0
 10
234.619828
 20
-6.205333
 30
0.0
 10
233.632050
 20
-6.205333
 30
0.0
 10
233.550093
 20
-8.533666
 30
0.0
  0
SPLINE
  5
260
100
AcDbEntity
  8
0
 62
7
100
AcDbSpline
 70
8
 71
3
 72
8
 73
4
 74
0
 40
0
 40
0
 40
0
 40
0
 40
1
 40
1
 40
1
 40
1
 10
246.834999
 20
-13.861711
 30
0.0
 10
248.420043
 20
-13.186325
 30
0.0
 10
249.106097
 20
-12.181388
 30
0.0
 10
249.222655
 20
-10.364244
 30
0.0
  0
SPLINE
  5
261
100
AcDbEntity
  8
0
 62
7
100
AcDbSpline
 70
8
 71
3
 72
8
 73
4
 74
0
 40
0
 40
0
 40
0
 40
0
 40
1
 40
1
 40
1
 40
1
 10
249.222655
 20
-10.364244
 30
0.0
 10
249.304415
 20
-9.089616
 30
0.0
 10
249.201771
 20
-8.546677
 30
0.0
 10
248.740309
 20
-7.811121
 30
0.0
  0
SPLINE
  5
262
100
AcDbEntity
  8
0
 62
7
100
AcDbSpline
 70
8
 71
3
 72
8
 73
4
 74
0
 40
0
 40
0
 40
0
 40
0
 40
1
 40
1
 40
1
 40
1
 10
248.740309
 20
-7.811121
 30
0.0
 10
247.855684
 20
-6.401280
 30
0.0
 10
246.657396
 20
-6.031004
 30
0.0
 10
243.283966
 20
-6.125069
 30
0.0
  0
LWPOLYLINE
  5
263
100
AcDbEntity
  8
0
 62
7
100
AcDbPolyline
 90
2
 70
1
 10
228.354501
 20
-13.910000
 30
0.0
 10
228.354501
 20
-13.910000
 30
0.0
  0
SPLINE
  5
264
100
AcDbEntity
  8
0
 62
7
100
AcDbSpline
 70
8
 71
3
 72
8
 73
4
 74
0
 40
0
 40
0
 40
0
 40
0
 40
1
 40
1
 40
1
 40
1
 10
240.326305
 20
-9.993404
 30
0.0
 10
240.266982
 20
-12.834479
 30
0.0
 10
240.337594
 20
-13.838795
 30
0.0
 10
240.608527
 20
-14.010753
 30
0.0
  0
SPLINE
  5
265
100
AcDbEntity
  8
0
 62
7
100
AcDbSpline
 70
8
 71
3
 72
8
 73
4
 74
0
 40
0
 40
0
 40
0
 40
0
 40
1
 40
1
 40
1
 40
1
 10
240.608527
 20
-14.010753
 30
0.0
 10
241.213809
 20
-14.394829
 30
0.0
 10
245.843919
 20
-14.284000
 30
0.0
 10
246.834999
 20
-13.861711
 30
0.0
  0
LWPOLYLINE
  5
266
100
AcDbEntity
  8
0
 62
7
100
AcDbPolyline
 90
3
 70
1
 10
243.283966
 20
-6.125069
 30
0.0
 10
240.405384
 20
-6.205333
 30
0.0
 10
240.326305
 20
-9.993404
 30
0.0
  0
SPLINE
  5
267
100
AcDbEntity
  8
0
 62
7
100
AcDbSpline
 70
8
 71
3
 72
8
 73
4
 74
0
 40
0
 40
0
 40
0
 40
0
 40
1
 40
1
 40
1
 40
1
 10
242.710208
 20
-12.367204
 30
0.0
 10
242.606717
 20
-12.263713
 30
0.0
 10
242.522050
 20
-11.192764
 30
0.0
 10
242.522050
 20
-9.987308
 30
0.0
  0
SPLINE
  5
268
100
AcDbEntity
  8
0
 62
7
100
AcDbSpline
 70
8
 71
3
 72
8
 73
4
 74
0
 40
0
 40
0
 40
0
 40
0
 40
1
 40
1
 40
1
 40
1
 10
242.522050
 20
-9.987308
 30
0.0
 10
242.522050
 20
-7.471636
 30
0.0
 10
242.724714
 20
-7.272359
 30
0.0
 10
244.944477
 20
-7.605240
 30
0.0
  0
SPLINE
  5
269
100
AcDbEntity
  8
0
 62
7
100
AcDbSpline
 70
8
 71
3
 72
8
 73
4
 74
0
 40
0
 40
0
 40
0
 40
0
 40
1
 40
1
 40
1
 40
1
 10
244.944477
 20
-7.605240
 30
0.0
 10
246.457752
 20
-7.832146
 30
0.0
 10
247.037606
 20
-8.556329
 30
0.0
 10
247.037606
 20
-10.219238
 30
0.0
  0
SPLINE
  5
26a
100
AcDbEntity
  8
0
 62
7
100
AcDbSpline
 70
8
 71
3
 72
8
 73
4
 74
0
 40
0
 40
0
 40
0
 40
0
 40
1
 40
1
 40
1
 40
1
 10
247.037606
 20
-10.219238
 30
0.0
 10
247.037606
 20
-11.938875
 30
0.0
 10
246.342521
 20
-12.555333
 30
0.0
 10
244.403541
 20
-12.555333
 30
0.0
  0
SPLINE
  5
26b
100
AcDbEntity
  8
0
 62
7
100
AcDbSpline
 70
8
 71
3
 72
8
 73
4
 74
0
 40
0
 40
0
 40
0
 40
0
 40
1
 40
1
 40
1
 40
1
 10
244.403541
 20
-12.555333
 30
0.0
 10
243.575671
 20
-12.555333
 30
0.0
 10
242.813671
 20
-12.470666
 30
0.0
 10
242.710208
 20
-12.367204
 30
0.0
  0
LWPOLYLINE
  5
26c
100
AcDbEntity
  8
0
 62
7
100
AcDbPolyline
 90
2
 70
1
 10
246.834999
 20
-13.861711
 30
0.0
 10
246.834999
 20
-13.861711
 30
0.0
  0
SPLINE
  5
26d
100
AcDbEntity
  8
0
 62
7
100
AcDbSpline
 70
8
 71
3
 72
8
 73
4
 74
0
 40
0
 40
0
 40
0
 40
0
 40
1
 40
1
 40
1
 40
1
 10
265.332944
 20
4.370973
 30
0.0
 10
267.424323
 20
5.489900
 30
0.0
 10
268.806055
 20
6.973429
 30
0.0
 10
269.921595
 20
9.297642
 30
0.0
  0
SPLINE
  5
26e
100
AcDbEntity
  8
0
 62
7
100
AcDbSpline
 70
8
 71
3
 72
8
 73
4
 74
0
 40
0
 40
0
 40
0
 40
0
 40
1
 40
1
 40
1
 40
1
 10
269.921595
 20
9.297642
 30
0.0
 10
271.163711
 20
11.885620
 30
0.0
 10
271.354973
 20
14.538000
 30
0.0
 10
270.299490
 20
14.538000
 30
0.0
  0
SPLINE
  5
26f
100
AcDbEntity
  8
0
 62
7
100
AcDbSpline
 70
8
 71
3
 72
8
 73
4
 74
0
 40
0
 40
0
 40
0
 40
0
 40
1
 40
1
 40
1
 40
1
 10
270.299490
 20
14.538000
 30
0.0
 10
270.075773
 20
14.538000
 30
0.0
 10
269.366774
 20
14.157000
 30
0.0
 10
268.723928
 20
13.691334
 30
0.0
  0
SPLINE
  5
270
100
AcDbEntity
  8
0
 62
7
100
AcDbSpline
 70
8
 71
3
 72
8
 73
4
 74
0
 40
0
 40
0
 40
0
 40
0
 40
1
 40
1
 40
1
 40
1
 10
268.723928
 20
13.691334
 30
0.0
 10
266.012055
 20
11.726841
 30
0.0
 10
263.956433
 20
13.405612
 30
0.0
 10
263.983329
 20
17.562830
 30
0.0
  0
SPLINE
  5
271
100
AcDbEntity
  8
0
 62
7
100
AcDbSpline
 70
8
 71
3
 72
8
 73
4
 74
0
 40
0
 40
0
 40
0
 40
0
 40
1
 40
1
 40
1
 40
1
 10
263.983329
 20
17.562830
 30
0.0
 10
264.004778
 20
20.855319
 30
0.0
 10
264.998200
 20
22.738616
 30
0.0
 10
269.727285
 20
28.450455
 30
0.0
  0
SPLINE
  5
272
100
AcDbEntity
  8
0
 62
7
100
AcDbSpline
 70
8
 71
3
 72
8
 73
4
 74
0
 40
0
 40
0
 40
0
 40
0
 40
1
 40
1
 40
1
 40
1
 10
269.727285
 20
28.450455
 30
0.0
 10
271.418671
 20
30.493360
 30
0.0
 10
272.974421
 20
32.576189
 30
0.0
 10
273.184507
 20
33.078996
 30
0.0
  0
SPLINE
  5
273
100
AcDbEntity
  8
0
 62
7
100
AcDbSpline
 70
8
 71
3
 72
8
 73
4
 74
0
 40
0
 40
0
 40
0
 40
0
 40
1
 40
1
 40
1
 40
1
 10
273.184507
 20
33.078996
 30
0.0
 10
273.657568
 20
34.211187
 30
0.0
 10
273.682319
 20
36.322632
 30
0.0
 10
273.227828
 20
36.777123
 30
0.0
  0
SPLINE
  5
274
100
AcDbEntity
  8
0
 62
7
100
AcDbSpline
 70
8
 71
3
 72
8
 73
4
 74
0
 40
0
 40
0
 40
0
 40
0
 40
1
 40
1
 40
1
 40
1
 10
273.227828
 20
36.777123
 30
0.0
 10
272.695811
 20
37.309140
 30
0.0
 10
270.836192
 20
37.174210
 30
0.0
 10
269.533596
 20
36.509040
 30
0.0
  0
SPLINE
  5
275
100
AcDbEntity
  8
0
 62
7
100
AcDbSpline
 70
8
 71
3
 72
8
 73
4
 74
0
 40
0
 40
0
 40
0
 40
0
 40
1
 40
1
 40
1
 40
1
 10
269.533596
 20
36.509040
 30
0.0
 10
267.913358
 20
35.681706
 30
0.0
 10
265.211391
 20
35.523576
 30
0.0
 10
262.450608
 20
36.094540
 30
0.0
  0
SPLINE
  5
276
100
AcDbEntity
  8
0
 62
7
100
AcDbSpline
 70
8
 71
3
 72
8
 73
4
 74
0
 40
0
 40
0
 40
0
 40
0
 40
1
 40
1
 40
1
 40
1
 10
262.450608
 20
36.094540
 30
0.0
 10
259.724426
 20
36.658307
 30
0.0
 10
256.471279
 20
36.673801
 30
0.0
 10
254.234273
 20
36.133656
 30
0.0
  0
SPLINE
  5
277
100
AcDbEntity
  8
0
 62
7
100
AcDbSpline
 70
8
 71
3
 72
8
 73
4
 74
0
 40
0
 40
0
 40
0
 40
0
 40
1
 40
1
 40
1
 40
1
 10
254.234273
 20
36.133656
 30
0.0
 10
251.712589
 20
35.524762
 30
0.0
 10
250.790089
 20
35.585383
 30
0.0
 10
250.025662
 20
36.410234
 30
0.0
  0
SPLINE
  5
278
100
AcDbEntity
  8
0
 62
7
100
AcDbSpline
 70
8
 71
3
 72
8
 73
4
 74
0
 40
0
 40
0
 40
0
 40
0
 40
1
 40
1
 40
1
 40
1
 10
250.025662
 20
36.410234
 30
0.0
 10
249.298799
 20
37.194501
 30
0.0
 10
247.615879
 20
37.389235
 30
0.0
 10
247.085697
 20
36.750396
 30
0.0
  0
SPLINE
  5
279
100
AcDbEntity
  8
0
 62
7
100
AcDbSpline
 70
8
 71
3
 72
8
 73
4
 74
0
 40
0
 40
0
 40
0
 40
0
 40
1
 40
1
 40
1
 40
1
 10
247.085697
 20
36.750396
 30
0.0
 10
246.918903
 20
36.549426
 30
0.0
 10
245.986469
 20
33.748399
 30
0.0
 10
245.013593
 20
30.525901
 30
0.0
  0
SPLINE
  5
27a
100
AcDbEntity
  8
0
 62
7
100
AcDbSpline
 70
8
 71
3
 72
8
 73
4
 74
0
 40
0
 40
0
 40
0
 40
0
 40
1
 40
1
 40
1
 40
1
 10
245.013593
 20
30.525901
 30
0.0
 10
243.054068
 20
24.035173
 30
0.0
 10
243.053362
 20
24.060178
 30
0.0
 10
245.192917
 20
24.201035
 30
0.0
  0
SPLINE
  5
27b
100
AcDbEntity
  8
0
 62
7
100
AcDbSpline
 70
8
 71
3
 72
8
 73
4
 74
0
 40
0
 40
0
 40
0
 40
0
 40
1
 40
1
 40
1
 40
1
 10
245.192917
 20
24.201035
 30
0.0
 10
246.242671
 20
24.270123
 30
0.0
 10
246.369699
 20
24.378920
 30
0.0
 10
247.255848
 20
25.968000
 30
0.0
  0
SPLINE
  5
27c
100
AcDbEntity
  8
0
 62
7
100
AcDbSpline
 70
8
 71
3
 72
8
 73
4
 74
0
 40
0
 40
0
 40
0
 40
0
 40
1
 40
1
 40
1
 40
1
 10
247.255848
 20
25.968000
 30
0.0
 10
248.651014
 20
28.469816
 30
0.0
 10
249.057386
 20
28.797956
 30
0.0
 10
250.698931
 20
28.748172
 30
0.0
  0
SPLINE
  5
27d
100
AcDbEntity
  8
0
 62
7
100
AcDbSpline
 70
8
 71
3
 72
8
 73
4
 74
0
 40
0
 40
0
 40
0
 40
0
 40
1
 40
1
 40
1
 40
1
 10
250.698931
 20
28.748172
 30
0.0
 10
251.461609
 20
28.725029
 30
0.0
 10
253.123502
 20
28.360455
 30
0.0
 10
254.392007
 20
27.938024
 30
0.0
  0
SPLINE
  5
27e
100
AcDbEntity
  8
0
 62
7
100
AcDbSpline
 70
8
 71
3
 72
8
 73
4
 74
0
 40
0
 40
0
 40
0
 40
0
 40
1
 40
1
 40
1
 40
1
 10
254.392007
 20
27.938024
 30
0.0
 10
256.521063
 20
27.228969
 30
0.0
 10
256.912928
 20
27.185112
 30
0.0
 10
259.488009
 20
27.367682
 30
0.0
  0
SPLINE
  5
27f
100
AcDbEntity
  8
0
 62
7
100
AcDbSpline
 70
8
 71
3
 72
8
 73
4
 74
0
 40
0
 40
0
 40
0
 40
0
 40
1
 40
1
 40
1
 40
1
 10
259.488009
 20
27.367682
 30
0.0
 10
262.151368
 20
27.556516
 30
0.0
 10
262.277606
 20
27.540035
 30
0.0
 10
262.277606
 20
27.003615
 30
0.0
  0
SPLINE
  5
280
100
AcDbEntity
  8
0
 62
7
100
AcDbSpline
 70
8
 71
3
 72
8
 73
4
 74
0
 40
0
 40
0
 40
0
 40
0
 40
1
 40
1
 40
1
 40
1
 10
262.277606
 20
27.003615
 30
0.0
 10
262.277606
 20
26.601815
 30
0.0
 10
261.534092
 20
25.972939
 30
0.0
 10
259.667050
 20
24.795536
 30
0.0
  0
SPLINE
  5
281
100
AcDbEntity
  8
0
 62
7
100
AcDbSpline
 70
8
 71
3
 72
8
 73
4
 74
0
 40
0
 40
0
 40
0
 40
0
 40
1
 40
1
 40
1
 40
1
 10
259.667050
 20
24.795536
 30
0.0
 10
256.114889
 20
22.555454
 30
0.0
 10
253.508425
 20
19.952462
 30
0.0
 10
252.333675
 20
17.471870
 30
0.0
  0
SPLINE
  5
282
100
AcDbEntity
  8
0
 62
7
100
AcDbSpline
 70
8
 71
3
 72
8
 73
4
 74
0
 40
0
 40
0
 40
0
 40
0
 40
1
 40
1
 40
1
 40
1
 10
252.333675
 20
17.471870
 30
0.0
 10
251.493782
 20
15.698357
 30
0.0
 10
251.412163
 20
15.287978
 30
0.0
 10
251.413236
 20
12.844667
 30
0.0
  0
SPLINE
  5
283
100
AcDbEntity
  8
0
 62
7
100
AcDbSpline
 70
8
 71
3
 72
8
 73
4
 74
0
 40
0
 40
0
 40
0
 40
0
 40
1
 40
1
 40
1
 40
1
 10
251.413236
 20
12.844667
 30
0.0
 10
251.413236
 20
10.503521
 30
0.0
 10
251.511139
 20
9.966734
 30
0.0
 10
252.177268
 20
8.611334
 30
0.0
  0
SPLINE
  5
284
100
AcDbEntity
  8
0
 62
7
100
AcDbSpline
 70
8
 71
3
 72
8
 73
4
 74
0
 40
0
 40
0
 40
0
 40
0
 40
1
 40
1
 40
1
 40
1
 10
252.177268
 20
8.611334
 30
0.0
 10
253.156212
 20
6.619353
 30
0.0
 10
255.295767
 20
4.518350
 30
0.0
 10
257.073090
 20
3.803678
 30
0.0
  0
SPLINE
  5
285
100
AcDbEntity
  8
0
 62
7
100
AcDbSpline
 70
8
 71
3
 72
8
 73
4
 74
0
 40
0
 40
0
 40
0
 40
0
 40
1
 40
1
 40
1
 40
1
 10
257.073090
 20
3.803678
 30
0.0
 10
258.183634
 20
3.357118
 30
0.0
 10
258.984835
 20
3.260542
 30
0.0
 10
261.007606
 20
3.329347
 30
0.0
  0
SPLINE
  5
286
100
AcDbEntity
  8
0
 62
7
100
AcDbSpline
 70
8
 71
3
 72
8
 73
4
 74
0
 40
0
 40
0
 40
0
 40
0
 40
1
 40
1
 40
1
 40
1
 10
261.007606
 20
3.329347
 30
0.0
 10
263.265327
 20
3.406168
 30
0.0
 10
263.746008
 20
3.521936
 30
0.0
 10
265.332944
 20
4.370973
 30
0.0
  0
LWPOLYLINE
  5
287
100
AcDbEntity
  8
0
 62
7
100
AcDbPolyline
 90
2
 70
1
 10
242.710208
 20
-12.367204
 30
0.0
 10
242.710208
 20
-12.367204
 30
0.0
  0
SPLINE
  5
288
100
AcDbEntity
  8
0
 62
7
100
AcDbSpline
 70
8
 71
3
 72
8
 73
4
 74
0
 40
0
 40
0
 40
0
 40
0
 40
1
 40
1
 40
1
 40
1
 10
221.459225
 20
4.521256
 30
0.0
 10
226.494334
 20
5.832743
 30
0.0
 10
230.206395
 20
9.292534
 30
0.0
 10
231.403931
 20
13.790168
 30
0.0
  0
SPLINE
  5
289
100
AcDbEntity
  8
0
 62
7
100
AcDbSpline
 70
8
 71
3
 72
8
 73
4
 74
0
 40
0
 40
0
 40
0
 40
0
 40
1
 40
1
 40
1
 40
1
 10
231.403931
 20
13.790168
 30
0.0
 10
232.197769
 20
16.771564
 30
0.0
 10
231.770202
 20
20.568553
 30
0.0
 10
230.320057
 20
23.415413
 30
0.0
  0
SPLINE
  5
28a
100
AcDbEntity
  8
0
 62
7
100
AcDbSpline
 70
8
 71
3
 72
8
 73
4
 74
0
 40
0
 40
0
 40
0
 40
0
 40
1
 40
1
 40
1
 40
1
 10
230.320057
 20
23.415413
 30
0.0
 10
229.463160
 20
25.097655
 30
0.0
 10
226.805106
 20
27.725878
 30
0.0
 10
224.861323
 20
28.812913
 30
0.0
  0
SPLINE
  5
28b
100
AcDbEntity
  8
0
 62
7
100
AcDbSpline
 70
8
 71
3
 72
8
 73
4
 74
0
 40
0
 40
0
 40
0
 40
0
 40
1
 40
1
 40
1
 40
1
 10
224.861323
 20
28.812913
 30
0.0
 10
222.831273
 20
29.948192
 30
0.0
 10
219.340311
 20
30.906901
 30
0.0
 10
217.236472
 20
30.906901
 30
0.0
  0
SPLINE
  5
28c
100
AcDbEntity
  8
0
 62
7
100
AcDbSpline
 70
8
 71
3
 72
8
 73
4
 74
0
 40
0
 40
0
 40
0
 40
0
 40
1
 40
1
 40
1
 40
1
 10
217.236472
 20
30.906901
 30
0.0
 10
212.206580
 20
30.906901
 30
0.0
 10
207.072577
 20
28.318855
 30
0.0
 10
204.543271
 20
24.508291
 30
0.0
  0
SPLINE
  5
28d
100
AcDbEntity
  8
0
 62
7
100
AcDbSpline
 70
8
 71
3
 72
8
 73
4
 74
0
 40
0
 40
0
 40
0
 40
0
 40
1
 40
1
 40
1
 40
1
 10
204.543271
 20
24.508291
 30
0.0
 10
202.911577
 20
22.050050
 30
0.0
 10
202.383678
 20
20.016696
 30
0.0
 10
202.500066
 20
16.638326
 30
0.0
  0
SPLINE
  5
28e
100
AcDbEntity
  8
0
 62
7
100
AcDbSpline
 70
8
 71
3
 72
8
 73
4
 74
0
 40
0
 40
0
 40
0
 40
0
 40
1
 40
1
 40
1
 40
1
 10
202.500066
 20
16.638326
 30
0.0
 10
202.588041
 20
14.084695
 30
0.0
 10
202.694503
 20
13.603083
 30
0.0
 10
203.560674
 20
11.840549
 30
0.0
  0
SPLINE
  5
28f
100
AcDbEntity
  8
0
 62
7
100
AcDbSpline
 70
8
 71
3
 72
8
 73
4
 74
0
 40
0
 40
0
 40
0
 40
0
 40
1
 40
1
 40
1
 40
1
 10
203.560674
 20
11.840549
 30
0.0
 10
205.277153
 20
8.347710
 30
0.0
 10
208.703497
 20
5.602224
 30
0.0
 10
212.683973
 20
4.530118
 30
0.0
  0
SPLINE
  5
290
100
AcDbEntity
  8
0
 62
7
100
AcDbSpline
 70
8
 71
3
 72
8
 73
4
 74
0
 40
0
 40
0
 40
0
 40
0
 40
1
 40
1
 40
1
 40
1
 10
212.683973
 20
4.530118
 30
0.0
 10
214.676677
 20
3.993416
 30
0.0
 10
219.414327
 20
3.988618
 30
0.0
 10
221.459225
 20
4.521369
 30
0.0
  0
LWPOLYLINE
  5
291
100
AcDbEntity
  8
0
 62
7
100
AcDbPolyline
 90
2
 70
1
 10
265.332944
 20
4.370973
 30
0.0
 10
265.332944
 20
4.370973
 30
0.0
  0
SPLINE
  5
292
100
AcDbEntity
  8
0
 62
7
100
AcDbSpline
 70
8
 71
3
 72
8
 73
4
 74
0
 40
0
 40
0
 40
0
 40
0
 40
1
 40
1
 40
1
 40
1
 10
214.136232
 20
7.167880
 30
0.0
 10
212.567924
 20
8.124246
 30
0.0
 10
212.465389
 20
8.767036
 30
0.0
 10
212.465389
 20
17.642445
 30
0.0
  0
SPLINE
  5
293
100
AcDbEntity
  8
0
 62
7
100
AcDbSpline
 70
8
 71
3
 72
8
 73
4
 74
0
 40
0
 40
0
 40
0
 40
0
 40
1
 40
1
 40
1
 40
1
 10
212.465389
 20
17.642445
 30
0.0
 10
212.465389
 20
24.686232
 30
0.0
 10
212.525110
 20
25.794829
 30
0.0
 10
212.945969
 20
26.563235
 30
0.0
  0
SPLINE
  5
294
100
AcDbEntity
  8
0
 62
7
100
AcDbSpline
 70
8
 71
3
 72
8
 73
4
 74
0
 40
0
 40
0
 40
0
 40
0
 40
1
 40
1
 40
1
 40
1
 10
212.945969
 20
26.563235
 30
0.0
 10
213.638906
 20
27.828438
 30
0.0
 10
214.691711
 20
28.158496
 30
0.0
 10
217.665328
 20
28.042701
 30
0.0
  0
SPLINE
  5
295
100
AcDbEntity
  8
0
 62
7
100
AcDbSpline
 70
8
 71
3
 72
8
 73
4
 74
0
 40
0
 40
0
 40
0
 40
0
 40
1
 40
1
 40
1
 40
1
 10
217.665328
 20
28.042701
 30
0.0
 10
219.759900
 20
27.961138
 30
0.0
 10
220.312434
 20
27.842492
 30
0.0
 10
220.780943
 20
27.373749
 30
0.0
  0
SPLINE
  5
296
100
AcDbEntity
  8
0
 62
7
100
AcDbSpline
 70
8
 71
3
 72
8
 73
4
 74
0
 40
0
 40
0
 40
0
 40
0
 40
1
 40
1
 40
1
 40
1
 10
220.780943
 20
27.373749
 30
0.0
 10
221.727959
 20
26.426216
 30
0.0
 10
221.969559
 20
24.025550
 30
0.0
 10
221.870617
 20
16.546040
 30
0.0
  0
SPLINE
  5
297
100
AcDbEntity
  8
0
 62
7
100
AcDbSpline
 70
8
 71
3
 72
8
 73
4
 74
0
 40
0
 40
0
 40
0
 40
0
 40
1
 40
1
 40
1
 40
1
 10
221.870617
 20
16.546040
 30
0.0
 10
221.767250
 20
8.731927
 30
0.0
 10
221.591914
 20
7.926832
 30
0.0
 10
219.809263
 20
7.080899
 30
0.0
  0
SPLINE
  5
298
100
AcDbEntity
  8
0
 62
7
100
AcDbSpline
 70
8
 71
3
 72
8
 73
4
 74
0
 40
0
 40
0
 40
0
 40
0
 40
1
 40
1
 40
1
 40
1
 10
219.809263
 20
7.080899
 30
0.0
 10
218.453479
 20
6.437545
 30
0.0
 10
215.253449
 20
6.486624
 30
0.0
 10
214.136232
 20
7.167880
 30
0.0
  0
LWPOLYLINE
  5
299
100
AcDbEntity
  8
0
 62
7
100
AcDbPolyline
 90
2
 70
1
 10
221.459225
 20
4.521369
 30
0.0
 10
221.459225
 20
4.521256
 30
0.0
  0
SPLINE
  5
29a
100
AcDbEntity
  8
0
 62
7
100
AcDbSpline
 70
8
 71
3
 72
8
 73
4
 74
0
 40
0
 40
0
 40
0
 40
0
 40
1
 40
1
 40
1
 40
1
 10
171.912983
 20
5.436334
 30
0.0
 10
171.829010
 20
6.450894
 30
0.0
 10
171.775560
 20
6.501299
 30
0.0
 10
170.620207
 20
6.655506
 30
0.0
  0
SPLINE
  5
29b
100
AcDbEntity
  8
0
 62
7
100
AcDbSpline
 70
8
 71
3
 72
8
 73
4
 74
0
 40
0
 40
0
 40
0
 40
0
 40
1
 40
1
 40
1
 40
1
 10
170.620207
 20
6.655506
 30
0.0
 10
168.947059
 20
6.878800
 30
0.0
 10
167.963184
 20
7.696567
 30
0.0
 10
167.390564
 20
9.339834
 30
0.0
  0
SPLINE
  5
29c
100
AcDbEntity
  8
0
 62
7
100
AcDbSpline
 70
8
 71
3
 72
8
 73
4
 74
0
 40
0
 40
0
 40
0
 40
0
 40
1
 40
1
 40
1
 40
1
 10
167.390564
 20
9.339834
 30
0.0
 10
166.970738
 20
10.544641
 30
0.0
 10
166.914824
 20
11.805948
 30
0.0
 10
166.967230
 20
18.889020
 30
0.0
  0
SPLINE
  5
29d
100
AcDbEntity
  8
0
 62
7
100
AcDbSpline
 70
8
 71
3
 72
8
 73
4
 74
0
 40
0
 40
0
 40
0
 40
0
 40
1
 40
1
 40
1
 40
1
 10
166.967230
 20
18.889020
 30
0.0
 10
167.008666
 20
24.489551
 30
0.0
 10
167.124346
 20
27.082270
 30
0.0
 10
167.335928
 20
27.152741
 30
0.0
  0
SPLINE
  5
29e
100
AcDbEntity
  8
0
 62
7
100
AcDbSpline
 70
8
 71
3
 72
8
 73
4
 74
0
 40
0
 40
0
 40
0
 40
0
 40
1
 40
1
 40
1
 40
1
 10
167.335928
 20
27.152741
 30
0.0
 10
167.505504
 20
27.209186
 30
0.0
 10
171.188504
 20
23.092325
 30
0.0
 10
175.520373
 20
18.004113
 30
0.0
  0
SPLINE
  5
29f
100
AcDbEntity
  8
0
 62
7
100
AcDbSpline
 70
8
 71
3
 72
8
 73
4
 74
0
 40
0
 40
0
 40
0
 40
0
 40
1
 40
1
 40
1
 40
1
 10
175.520373
 20
18.004113
 30
0.0
 10
179.852244
 20
12.915900
 30
0.0
 10
184.260747
 20
7.768477
 30
0.0
 10
185.317048
 20
6.565420
 30
0.0
  0
LWPOLYLINE
  5
2a0
100
AcDbEntity
  8
0
 62
7
100
AcDbPolyline
 90
2
 70
1
 10
214.136232
 20
7.167880
 30
0.0
 10
214.136232
 20
7.167880
 30
0.0
  0
SPLINE
  5
2a1
100
AcDbEntity
  8
0
 62
7
100
AcDbSpline
 70
8
 71
3
 72
8
 73
4
 74
0
 40
0
 40
0
 40
0
 40
0
 40
1
 40
1
 40
1
 40
1
 10
190.693381
 20
4.378000
 30
0.0
 10
193.004920
 20
4.378000
 30
0.0
 10
194.261303
 20
4.490127
 30
0.0
 10
194.487834
 20
4.716667
 30
0.0
  0
SPLINE
  5
2a2
100
AcDbEntity
  8
0
 62
7
100
AcDbSpline
 70
8
 71
3
 72
8
 73
4
 74
0
 40
0
 40
0
 40
0
 40
0
 40
1
 40
1
 40
1
 40
1
 10
194.487834
 20
4.716667
 30
0.0
 10
194.741030
 20
4.969849
 30
0.0
 10
194.828064
 20
8.264059
 30
0.0
 10
194.832698
 20
17.769445
 30
0.0
  0
SPLINE
  5
2a3
100
AcDbEntity
  8
0
 62
7
100
AcDbSpline
 70
8
 71
3
 72
8
 73
4
 74
0
 40
0
 40
0
 40
0
 40
0
 40
1
 40
1
 40
1
 40
1
 10
194.832698
 20
17.769445
 30
0.0
 10
194.838484
 20
29.633881
 30
0.0
 10
194.874600
 20
30.562194
 30
0.0
 10
195.373151
 20
31.660236
 30
0.0
  0
SPLINE
  5
2a4
100
AcDbEntity
  8
0
 62
7
100
AcDbSpline
 70
8
 71
3
 72
8
 73
4
 74
0
 40
0
 40
0
 40
0
 40
0
 40
1
 40
1
 40
1
 40
1
 10
195.373151
 20
31.660236
 30
0.0
 10
195.990755
 20
33.020491
 30
0.0
 10
196.720229
 20
33.500833
 30
0.0
 10
198.495389
 20
33.716169
 30
0.0
  0
SPLINE
  5
2a5
100
AcDbEntity
  8
0
 62
7
100
AcDbSpline
 70
8
 71
3
 72
8
 73
4
 74
0
 40
0
 40
0
 40
0
 40
0
 40
1
 40
1
 40
1
 40
1
 10
198.495389
 20
33.716169
 30
0.0
 10
199.729324
 20
33.865860
 30
0.0
 10
199.765389
 20
33.898287
 30
0.0
 10
199.765389
 20
34.858012
 30
0.0
  0
LWPOLYLINE
  5
2a6
100
AcDbEntity
  8
0
 62
7
100
AcDbPolyline
 90
3
 70
1
 10
185.317048
 20
6.565420
 30
0.0
 10
187.237596
 20
4.378000
 30
0.0
 10
190.693381
 20
4.378000
 30
0.0
  0
SPLINE
  5
2a7
100
AcDbEntity
  8
0
 62
7
100
AcDbSpline
 70
8
 71
3
 72
8
 73
4
 74
0
 40
0
 40
0
 40
0
 40
0
 40
1
 40
1
 40
1
 40
1
 10
187.259694
 20
34.934014
 30
0.0
 10
187.344025
 20
33.913640
 30
0.0
 10
187.393676
 20
33.866509
 30
0.0
 10
188.476501
 20
33.778794
 30
0.0
  0
SPLINE
  5
2a8
100
AcDbEntity
  8
0
 62
7
100
AcDbSpline
 70
8
 71
3
 72
8
 73
4
 74
0
 40
0
 40
0
 40
0
 40
0
 40
1
 40
1
 40
1
 40
1
 10
188.476501
 20
33.778794
 30
0.0
 10
190.136032
 20
33.644372
 30
0.0
 10
191.332313
 20
32.606443
 30
0.0
 10
191.854545
 20
30.847888
 30
0.0
  0
SPLINE
  5
2a9
100
AcDbEntity
  8
0
 62
7
100
AcDbSpline
 70
8
 71
3
 72
8
 73
4
 74
0
 40
0
 40
0
 40
0
 40
0
 40
1
 40
1
 40
1
 40
1
 10
191.854545
 20
30.847888
 30
0.0
 10
192.459562
 20
28.810571
 30
0.0
 10
192.496787
 20
15.294017
 30
0.0
 10
191.896994
 20
15.434536
 30
0.0
  0
SPLINE
  5
2aa
100
AcDbEntity
  8
0
 62
7
100
AcDbSpline
 70
8
 71
3
 72
8
 73
4
 74
0
 40
0
 40
0
 40
0
 40
0
 40
1
 40
1
 40
1
 40
1
 10
191.896994
 20
15.434536
 30
0.0
 10
191.682765
 20
15.484715
 30
0.0
 10
187.587015
 20
20.097778
 30
0.0
 10
182.795328
 20
25.685778
 30
0.0
  0
LWPOLYLINE
  5
2ab
100
AcDbEntity
  8
0
 62
7
100
AcDbPolyline
 90
5
 70
1
 10
199.765389
 20
34.858012
 30
0.0
 10
199.765389
 20
35.845790
 30
0.0
 10
193.468583
 20
35.921792
 30
0.0
 10
187.171779
 20
35.997794
 30
0.0
 10
187.259694
 20
34.934014
 30
0.0
  0
SPLINE
  5
2ac
100
AcDbEntity
  8
0
 62
7
100
AcDbSpline
 70
8
 71
3
 72
8
 73
4
 74
0
 40
0
 40
0
 40
0
 40
0
 40
1
 40
1
 40
1
 40
1
 10
167.380389
 20
35.921453
 30
0.0
 10
163.221151
 20
35.968387
 30
0.0
 10
160.677606
 20
35.894078
 30
0.0
 10
160.677606
 20
35.725450
 30
0.0
  0
SPLINE
  5
2ad
100
AcDbEntity
  8
0
 62
7
100
AcDbSpline
 70
8
 71
3
 72
8
 73
4
 74
0
 40
0
 40
0
 40
0
 40
0
 40
1
 40
1
 40
1
 40
1
 10
160.677606
 20
35.725450
 30
0.0
 10
160.677606
 20
35.576013
 30
0.0
 10
161.503106
 20
34.482402
 30
0.0
 10
162.512056
 20
33.295206
 30
0.0
  0
LWPOLYLINE
  5
2ae
100
AcDbEntity
  8
0
 62
7
100
AcDbPolyline
 90
3
 70
1
 10
182.795328
 20
25.685778
 30
0.0
 10
174.083167
 20
35.845790
 30
0.0
 10
167.380389
 20
35.921453
 30
0.0
  0
SPLINE
  5
2af
100
AcDbEntity
  8
0
 62
7
100
AcDbSpline
 70
8
 71
3
 72
8
 73
4
 74
0
 40
0
 40
0
 40
0
 40
0
 40
1
 40
1
 40
1
 40
1
 10
164.346501
 20
20.429333
 30
0.0
 10
164.346501
 20
8.807619
 30
0.0
 10
164.302776
 20
8.437231
 30
0.0
 10
162.790418
 20
7.247608
 30
0.0
  0
SPLINE
  5
2b0
100
AcDbEntity
  8
0
 62
7
100
AcDbSpline
 70
8
 71
3
 72
8
 73
4
 74
0
 40
0
 40
0
 40
0
 40
0
 40
1
 40
1
 40
1
 40
1
 10
162.790418
 20
7.247608
 30
0.0
 10
162.313866
 20
6.872732
 30
0.0
 10
161.611959
 20
6.635778
 30
0.0
 10
160.978229
 20
6.635778
 30
0.0
  0
SPLINE
  5
2b1
100
AcDbEntity
  8
0
 62
7
100
AcDbSpline
 70
8
 71
3
 72
8
 73
4
 74
0
 40
0
 40
0
 40
0
 40
0
 40
1
 40
1
 40
1
 40
1
 10
160.978229
 20
6.635778
 30
0.0
 10
160.409297
 20
6.635778
 30
0.0
 10
159.791428
 20
6.483378
 30
0.0
 10
159.605162
 20
6.297112
 30
0.0
  0
SPLINE
  5
2b2
100
AcDbEntity
  8
0
 62
7
100
AcDbSpline
 70
8
 71
3
 72
8
 73
4
 74
0
 40
0
 40
0
 40
0
 40
0
 40
1
 40
1
 40
1
 40
1
 10
159.605162
 20
6.297112
 30
0.0
 10
159.240107
 20
5.932057
 30
0.0
 10
159.147990
 20
4.872792
 30
0.0
 10
159.454652
 20
4.566130
 30
0.0
  0
SPLINE
  5
2b3
100
AcDbEntity
  8
0
 62
7
100
AcDbSpline
 70
8
 71
3
 72
8
 73
4
 74
0
 40
0
 40
0
 40
0
 40
0
 40
1
 40
1
 40
1
 40
1
 10
159.454652
 20
4.566130
 30
0.0
 10
159.558115
 20
4.462667
 30
0.0
 10
162.423297
 20
4.378000
 30
0.0
 10
165.821685
 20
4.378000
 30
0.0
  0
LWPOLYLINE
  5
2b4
100
AcDbEntity
  8
0
 62
7
100
AcDbPolyline
 90
3
 70
1
 10
162.512056
 20
33.295206
 30
0.0
 10
164.346501
 20
31.136630
 30
0.0
 10
164.346501
 20
20.429333
 30
0.0
  0
SPLINE
  5
2b5
100
AcDbEntity
  8
0
 62
7
100
AcDbSpline
 70
8
 71
3
 72
8
 73
4
 74
0
 40
0
 40
0
 40
0
 40
0
 40
1
 40
1
 40
1
 40
1
 10
239.957610
 20
6.564602
 30
0.0
 10
241.612476
 20
7.776577
 30
0.0
 10
242.166112
 20
10.484104
 30
0.0
 10
241.112463
 20
12.212235
 30
0.0
  0
SPLINE
  5
2b6
100
AcDbEntity
  8
0
 62
7
100
AcDbSpline
 70
8
 71
3
 72
8
 73
4
 74
0
 40
0
 40
0
 40
0
 40
0
 40
1
 40
1
 40
1
 40
1
 10
241.112463
 20
12.212235
 30
0.0
 10
239.602659
 20
14.688481
 30
0.0
 10
236.679147
 20
14.911550
 30
0.0
 10
234.619828
 20
12.707620
 30
0.0
  0
SPLINE
  5
2b7
100
AcDbEntity
  8
0
 62
7
100
AcDbSpline
 70
8
 71
3
 72
8
 73
4
 74
0
 40
0
 40
0
 40
0
 40
0
 40
1
 40
1
 40
1
 40
1
 10
234.619828
 20
12.707620
 30
0.0
 10
234.009636
 20
12.054558
 30
0.0
 10
233.914273
 20
11.691676
 30
0.0
 10
233.914273
 20
10.022445
 30
0.0
  0
SPLINE
  5
2b8
100
AcDbEntity
  8
0
 62
7
100
AcDbSpline
 70
8
 71
3
 72
8
 73
4
 74
0
 40
0
 40
0
 40
0
 40
0
 40
1
 40
1
 40
1
 40
1
 10
233.914273
 20
10.022445
 30
0.0
 10
233.914273
 20
8.355640
 30
0.0
 10
234.010539
 20
7.988102
 30
0.0
 10
234.619828
 20
7.328069
 30
0.0
  0
SPLINE
  5
2b9
100
AcDbEntity
  8
0
 62
7
100
AcDbSpline
 70
8
 71
3
 72
8
 73
4
 74
0
 40
0
 40
0
 40
0
 40
0
 40
1
 40
1
 40
1
 40
1
 10
234.619828
 20
7.328069
 30
0.0
 10
236.083461
 20
5.742658
 30
0.0
 10
238.385660
 20
5.413361
 30
0.0
 10
239.957610
 20
6.564602
 30
0.0
  0
LWPOLYLINE
  5
2ba
100
AcDbEntity
  8
0
 62
7
100
AcDbPolyline
 90
4
 70
1
 10
165.821685
 20
4.378000
 30
0.0
 10
172.000573
 20
4.378000
 30
0.0
 10
171.912983
 20
5.436334
 30
0.0
 10
171.912983
 20
5.436334
 30
0.0
  0
SPLINE
  5
2bb
100
AcDbEntity
  8
0
 62
7
100
AcDbSpline
 70
8
 71
3
 72
8
 73
4
 74
0
 40
0
 40
0
 40
0
 40
0
 40
1
 40
1
 40
1
 40
1
 10
201.516609
 20
44.499457
 30
0.0
 10
203.884612
 20
45.385437
 30
0.0
 10
206.193511
 20
47.756837
 30
0.0
 10
206.834305
 20
49.961078
 30
0.0
  0
SPLINE
  5
2bc
100
AcDbEntity
  8
0
 62
7
100
AcDbSpline
 70
8
 71
3
 72
8
 73
4
 74
0
 40
0
 40
0
 40
0
 40
0
 40
1
 40
1
 40
1
 40
1
 10
206.834305
 20
49.961078
 30
0.0
 10
208.244005
 20
54.810276
 30
0.0
 10
204.901921
 20
59.197336
 30
0.0
 10
198.964677
 20
60.291314
 30
0.0
  0
SPLINE
  5
2bd
100
AcDbEntity
  8
0
 62
7
100
AcDbSpline
 70
8
 71
3
 72
8
 73
4
 74
0
 40
0
 40
0
 40
0
 40
0
 40
1
 40
1
 40
1
 40
1
 10
198.964677
 20
60.291314
 30
0.0
 10
193.543411
 20
61.290240
 30
0.0
 10
187.517859
 20
57.110698
 30
0.0
 10
187.494920
 20
52.335498
 30
0.0
  0
SPLINE
  5
2be
100
AcDbEntity
  8
0
 62
7
100
AcDbSpline
 70
8
 71
3
 72
8
 73
4
 74
0
 40
0
 40
0
 40
0
 40
0
 40
1
 40
1
 40
1
 40
1
 10
187.494920
 20
52.335498
 30
0.0
 10
187.479680
 20
49.163715
 30
0.0
 10
189.807768
 20
45.883531
 30
0.0
 10
192.992056
 20
44.590248
 30
0.0
  0
SPLINE
  5
2bf
100
AcDbEntity
  8
0
 62
7
100
AcDbSpline
 70
8
 71
3
 72
8
 73
4
 74
0
 40
0
 40
0
 40
0
 40
0
 40
1
 40
1
 40
1
 40
1
 10
192.992056
 20
44.590248
 30
0.0
 10
195.310396
 20
43.648670
 30
0.0
 10
199.133835
 20
43.607945
 30
0.0
 10
201.516609
 20
44.499457
 30
0.0
  0
LWPOLYLINE
  5
2c0
100
AcDbEntity
  8
0
 62
7
100
AcDbPolyline
 90
2
 70
1
 10
239.957610
 20
6.564602
 30
0.0
 10
239.957610
 20
6.564602
 30
0.0
  0
SPLINE
  5
2c1
100
AcDbEntity
  8
0
 62
7
100
AcDbSpline
 70
8
 71
3
 72
8
 73
4
 74
0
 40
0
 40
0
 40
0
 40
0
 40
1
 40
1
 40
1
 40
1
 10
195.740610
 20
45.499822
 30
0.0
 10
194.513104
 20
45.735872
 30
0.0
 10
194.262056
 20
46.842522
 30
0.0
 10
194.262056
 20
52.017433
 30
0.0
  0
SPLINE
  5
2c2
100
AcDbEntity
  8
0
 62
7
100
AcDbSpline
 70
8
 71
3
 72
8
 73
4
 74
0
 40
0
 40
0
 40
0
 40
0
 40
1
 40
1
 40
1
 40
1
 10
194.262056
 20
52.017433
 30
0.0
 10
194.262056
 20
57.589996
 30
0.0
 10
194.451557
 20
58.397151
 30
0.0
 10
195.869760
 20
58.865217
 30
0.0
  0
SPLINE
  5
2c3
100
AcDbEntity
  8
0
 62
7
100
AcDbSpline
 70
8
 71
3
 72
8
 73
4
 74
0
 40
0
 40
0
 40
0
 40
0
 40
1
 40
1
 40
1
 40
1
 10
195.869760
 20
58.865217
 30
0.0
 10
197.188147
 20
59.300319
 30
0.0
 10
198.997765
 20
59.034212
 30
0.0
 10
199.736250
 20
58.296652
 30
0.0
  0
SPLINE
  5
2c4
100
AcDbEntity
  8
0
 62
7
100
AcDbSpline
 70
8
 71
3
 72
8
 73
4
 74
0
 40
0
 40
0
 40
0
 40
0
 40
1
 40
1
 40
1
 40
1
 10
199.736250
 20
58.296652
 30
0.0
 10
200.285491
 20
57.748097
 30
0.0
 10
200.336703
 20
57.340681
 30
0.0
 10
200.421796
 20
52.842566
 30
0.0
  0
SPLINE
  5
2c5
100
AcDbEntity
  8
0
 62
7
100
AcDbSpline
 70
8
 71
3
 72
8
 73
4
 74
0
 40
0
 40
0
 40
0
 40
0
 40
1
 40
1
 40
1
 40
1
 10
200.421796
 20
52.842566
 30
0.0
 10
200.529735
 20
47.136767
 30
0.0
 10
200.321082
 20
46.064407
 30
0.0
 10
199.014306
 20
45.608872
 30
0.0
  0
SPLINE
  5
2c6
100
AcDbEntity
  8
0
 62
7
100
AcDbSpline
 70
8
 71
3
 72
8
 73
4
 74
0
 40
0
 40
0
 40
0
 40
0
 40
1
 40
1
 40
1
 40
1
 10
199.014306
 20
45.608872
 30
0.0
 10
198.136070
 20
45.302718
 30
0.0
 10
196.967873
 20
45.263799
 30
0.0
 10
195.740610
 20
45.499822
 30
0.0
  0
LWPOLYLINE
  5
2c7
100
AcDbEntity
  8
0
 62
7
100
AcDbPolyline
 90
2
 70
1
 10
201.516609
 20
44.499457
 30
0.0
 10
201.516609
 20
44.499457
 30
0.0
  0
SPLINE
  5
2c8
100
AcDbEntity
  8
0
 62
7
100
AcDbSpline
 70
8
 71
3
 72
8
 73
4
 74
0
 40
0
 40
0
 40
0
 40
0
 40
1
 40
1
 40
1
 40
1
 10
236.043668
 20
44.350472
 30
0.0
 10
236.903599
 20
44.694557
 30
0.0
 10
237.278079
 20
44.730427
 30
0.0
 10
237.516924
 20
44.491583
 30
0.0
  0
SPLINE
  5
2c9
100
AcDbEntity
  8
0
 62
7
100
AcDbSpline
 70
8
 71
3
 72
8
 73
4
 74
0
 40
0
 40
0
 40
0
 40
0
 40
1
 40
1
 40
1
 40
1
 10
237.516924
 20
44.491583
 30
0.0
 10
237.968367
 20
44.040140
 30
0.0
 10
244.673826
 20
44.053743
 30
0.0
 10
244.953762
 20
44.506540
 30
0.0
  0
SPLINE
  5
2ca
100
AcDbEntity
  8
0
 62
7
100
AcDbSpline
 70
8
 71
3
 72
8
 73
4
 74
0
 40
0
 40
0
 40
0
 40
0
 40
1
 40
1
 40
1
 40
1
 10
244.953762
 20
44.506540
 30
0.0
 10
245.074186
 20
44.701387
 30
0.0
 10
244.940215
 20
44.967409
 30
0.0
 10
244.634230
 20
45.141540
 30
0.0
  0
SPLINE
  5
2cb
100
AcDbEntity
  8
0
 62
7
100
AcDbSpline
 70
8
 71
3
 72
8
 73
4
 74
0
 40
0
 40
0
 40
0
 40
0
 40
1
 40
1
 40
1
 40
1
 10
244.634230
 20
45.141540
 30
0.0
 10
244.344500
 20
45.306358
 30
0.0
 10
243.814233
 20
45.721197
 30
0.0
 10
243.455867
 20
46.063391
 30
0.0
  0
SPLINE
  5
2cc
100
AcDbEntity
  8
0
 62
7
100
AcDbSpline
 70
8
 71
3
 72
8
 73
4
 74
0
 40
0
 40
0
 40
0
 40
0
 40
1
 40
1
 40
1
 40
1
 10
243.455867
 20
46.063391
 30
0.0
 10
242.810651
 20
46.679454
 30
0.0
 10
242.804273
 20
46.751872
 30
0.0
 10
242.804273
 20
53.448215
 30
0.0
  0
SPLINE
  5
2cd
100
AcDbEntity
  8
0
 62
7
100
AcDbSpline
 70
8
 71
3
 72
8
 73
4
 74
0
 40
0
 40
0
 40
0
 40
0
 40
1
 40
1
 40
1
 40
1
 10
242.804273
 20
53.448215
 30
0.0
 10
242.804273
 20
58.606391
 30
0.0
 10
242.720566
 20
60.239216
 30
0.0
 10
242.451495
 20
60.330430
 30
0.0
  0
SPLINE
  5
2ce
100
AcDbEntity
  8
0
 62
7
100
AcDbSpline
 70
8
 71
3
 72
8
 73
4
 74
0
 40
0
 40
0
 40
0
 40
0
 40
1
 40
1
 40
1
 40
1
 10
242.451495
 20
60.330430
 30
0.0
 10
241.629974
 20
60.608870
 30
0.0
 10
235.313559
 20
60.184465
 30
0.0
 10
234.934026
 20
59.825337
 30
0.0
  0
SPLINE
  5
2cf
100
AcDbEntity
  8
0
 62
7
100
AcDbSpline
 70
8
 71
3
 72
8
 73
4
 74
0
 40
0
 40
0
 40
0
 40
0
 40
1
 40
1
 40
1
 40
1
 10
234.934026
 20
59.825337
 30
0.0
 10
234.305066
 20
59.230187
 30
0.0
 10
234.757920
 20
58.667859
 30
0.0
 10
236.148005
 20
58.317819
 30
0.0
  0
LWPOLYLINE
  5
2d0
100
AcDbEntity
  8
0
 62
7
100
AcDbPolyline
 90
2
 70
1
 10
195.740610
 20
45.499822
 30
0.0
 10
195.740610
 20
45.499822
 30
0.0
  0
SPLINE
  5
2d1
100
AcDbEntity
  8
0
 62
7
100
AcDbSpline
 70
8
 71
3
 72
8
 73
4
 74
0
 40
0
 40
0
 40
0
 40
0
 40
1
 40
1
 40
1
 40
1
 10
237.442050
 20
56.695859
 30
0.0
 10
237.442050
 20
55.571401
 30
0.0
 10
237.376631
 20
55.426904
 30
0.0
 10
236.948162
 20
55.604958
 30
0.0
  0
SPLINE
  5
2d2
100
AcDbEntity
  8
0
 62
7
100
AcDbSpline
 70
8
 71
3
 72
8
 73
4
 74
0
 40
0
 40
0
 40
0
 40
0
 40
1
 40
1
 40
1
 40
1
 10
236.948162
 20
55.604958
 30
0.0
 10
235.155288
 20
56.349968
 30
0.0
 10
233.792691
 20
56.609076
 30
0.0
 10
232.514676
 20
56.448040
 30
0.0
  0
SPLINE
  5
2d3
100
AcDbEntity
  8
0
 62
7
100
AcDbSpline
 70
8
 71
3
 72
8
 73
4
 74
0
 40
0
 40
0
 40
0
 40
0
 40
1
 40
1
 40
1
 40
1
 10
232.514676
 20
56.448040
 30
0.0
 10
228.207429
 20
55.905270
 30
0.0
 10
225.472950
 20
52.888992
 30
0.0
 10
226.014463
 20
49.277902
 30
0.0
  0
SPLINE
  5
2d4
100
AcDbEntity
  8
0
 62
7
100
AcDbSpline
 70
8
 71
3
 72
8
 73
4
 74
0
 40
0
 40
0
 40
0
 40
0
 40
1
 40
1
 40
1
 40
1
 10
226.014463
 20
49.277902
 30
0.0
 10
226.372386
 20
46.891092
 30
0.0
 10
227.777621
 20
45.022302
 30
0.0
 10
229.830489
 20
44.202982
 30
0.0
  0
SPLINE
  5
2d5
100
AcDbEntity
  8
0
 62
7
100
AcDbSpline
 70
8
 71
3
 72
8
 73
4
 74
0
 40
0
 40
0
 40
0
 40
0
 40
1
 40
1
 40
1
 40
1
 10
229.830489
 20
44.202982
 30
0.0
 10
230.979258
 20
43.744512
 30
0.0
 10
234.753263
 20
43.834033
 30
0.0
 10
236.043668
 20
44.350359
 30
0.0
  0
LWPOLYLINE
  5
2d6
100
AcDbEntity
  8
0
 62
7
100
AcDbPolyline
 90
3
 70
1
 10
236.148005
 20
58.317819
 30
0.0
 10
237.442050
 20
57.991993
 30
0.0
 10
237.442050
 20
56.695859
 30
0.0
  0
SPLINE
  5
2d7
100
AcDbEntity
  8
0
 62
7
100
AcDbSpline
 70
8
 71
3
 72
8
 73
4
 74
0
 40
0
 40
0
 40
0
 40
0
 40
1
 40
1
 40
1
 40
1
 10
232.997050
 20
45.897275
 30
0.0
 10
232.748441
 20
46.152771
 30
0.0
 10
232.644273
 20
47.442385
 30
0.0
 10
232.644273
 20
50.265370
 30
0.0
  0
SPLINE
  5
2d8
100
AcDbEntity
  8
0
 62
7
100
AcDbSpline
 70
8
 71
3
 72
8
 73
4
 74
0
 40
0
 40
0
 40
0
 40
0
 40
1
 40
1
 40
1
 40
1
 10
232.644273
 20
50.265370
 30
0.0
 10
232.644273
 20
54.714264
 30
0.0
 10
232.598496
 20
54.613567
 30
0.0
 10
234.621268
 20
54.613567
 30
0.0
  0
SPLINE
  5
2d9
100
AcDbEntity
  8
0
 62
7
100
AcDbSpline
 70
8
 71
3
 72
8
 73
4
 74
0
 40
0
 40
0
 40
0
 40
0
 40
1
 40
1
 40
1
 40
1
 10
234.621268
 20
54.613567
 30
0.0
 10
235.378696
 20
54.613567
 30
0.0
 10
235.969754
 20
54.391120
 30
0.0
 10
236.582656
 20
53.875387
 30
0.0
  0
LWPOLYLINE
  5
2da
100
AcDbEntity
  8
0
 62
7
100
AcDbPolyline
 90
2
 70
1
 10
236.043668
 20
44.350359
 30
0.0
 10
236.043668
 20
44.350472
 30
0.0
  0
SPLINE
  5
2db
100
AcDbEntity
  8
0
 62
7
100
AcDbSpline
 70
8
 71
3
 72
8
 73
4
 74
0
 40
0
 40
0
 40
0
 40
0
 40
1
 40
1
 40
1
 40
1
 10
237.380441
 20
50.024578
 30
0.0
 10
237.304016
 20
47.032232
 30
0.0
 10
237.272181
 20
46.890472
 30
0.0
 10
236.557058
 20
46.357241
 30
0.0
  0
SPLINE
  5
2dc
100
AcDbEntity
  8
0
 62
7
100
AcDbSpline
 70
8
 71
3
 72
8
 73
4
 74
0
 40
0
 40
0
 40
0
 40
0
 40
1
 40
1
 40
1
 40
1
 10
236.557058
 20
46.357241
 30
0.0
 10
235.631623
 20
45.667236
 30
0.0
 10
233.490206
 20
45.390545
 30
0.0
 10
232.997050
 20
45.897275
 30
0.0
  0
LWPOLYLINE
  5
2dd
100
AcDbEntity
  8
0
 62
7
100
AcDbPolyline
 90
3
 70
1
 10
236.582656
 20
53.875387
 30
0.0
 10
237.459915
 20
53.137235
 30
0.0
 10
237.380441
 20
50.024578
 30
0.0
  0
SPLINE
  5
2de
100
AcDbEntity
  8
0
 62
7
100
AcDbSpline
 70
8
 71
3
 72
8
 73
4
 74
0
 40
0
 40
0
 40
0
 40
0
 40
1
 40
1
 40
1
 40
1
 10
221.561807
 20
44.648668
 30
0.0
 10
221.623300
 20
44.833608
 30
0.0
 10
221.279057
 20
45.188926
 30
0.0
 10
220.796821
 20
45.438297
 30
0.0
  0
SPLINE
  5
2df
100
AcDbEntity
  8
0
 62
7
100
AcDbSpline
 70
8
 71
3
 72
8
 73
4
 74
0
 40
0
 40
0
 40
0
 40
0
 40
1
 40
1
 40
1
 40
1
 10
220.796821
 20
45.438297
 30
0.0
 10
220.314585
 20
45.687669
 30
0.0
 10
219.798485
 20
46.211388
 30
0.0
 10
219.649932
 20
46.602125
 30
0.0
  0
SPLINE
  5
2e0
100
AcDbEntity
  8
0
 62
7
100
AcDbSpline
 70
8
 71
3
 72
8
 73
4
 74
0
 40
0
 40
0
 40
0
 40
0
 40
1
 40
1
 40
1
 40
1
 10
219.649932
 20
46.602125
 30
0.0
 10
219.501379
 20
46.992834
 30
0.0
 10
219.379834
 20
50.211663
 30
0.0
 10
219.379834
 20
53.755076
 30
0.0
  0
SPLINE
  5
2e1
100
AcDbEntity
  8
0
 62
7
100
AcDbSpline
 70
8
 71
3
 72
8
 73
4
 74
0
 40
0
 40
0
 40
0
 40
0
 40
1
 40
1
 40
1
 40
1
 10
219.379834
 20
53.755076
 30
0.0
 10
219.379834
 20
58.653240
 30
0.0
 10
219.295266
 20
60.228068
 30
0.0
 10
219.027056
 20
60.324616
 30
0.0
  0
SPLINE
  5
2e2
100
AcDbEntity
  8
0
 62
7
100
AcDbSpline
 70
8
 71
3
 72
8
 73
4
 74
0
 40
0
 40
0
 40
0
 40
0
 40
1
 40
1
 40
1
 40
1
 10
219.027056
 20
60.324616
 30
0.0
 10
218.833028
 20
60.394438
 30
0.0
 10
216.959778
 20
60.376291
 30
0.0
 10
214.864278
 20
60.284230
 30
0.0
  0
SPLINE
  5
2e3
100
AcDbEntity
  8
0
 62
7
100
AcDbSpline
 70
8
 71
3
 72
8
 73
4
 74
0
 40
0
 40
0
 40
0
 40
0
 40
1
 40
1
 40
1
 40
1
 10
214.864278
 20
60.284230
 30
0.0
 10
211.183511
 20
60.122573
 30
0.0
 10
211.051213
 20
60.095311
 30
0.0
 10
210.963894
 20
59.480377
 30
0.0
  0
SPLINE
  5
2e4
100
AcDbEntity
  8
0
 62
7
100
AcDbSpline
 70
8
 71
3
 72
8
 73
4
 74
0
 40
0
 40
0
 40
0
 40
0
 40
1
 40
1
 40
1
 40
1
 10
210.963894
 20
59.480377
 30
0.0
 10
210.890369
 20
58.962584
 30
0.0
 10
211.106526
 20
58.743946
 30
0.0
 10
212.122594
 20
58.308421
 30
0.0
  0
SPLINE
  5
2e5
100
AcDbEntity
  8
0
 62
7
100
AcDbSpline
 70
8
 71
3
 72
8
 73
4
 74
0
 40
0
 40
0
 40
0
 40
0
 40
1
 40
1
 40
1
 40
1
 10
212.122594
 20
58.308421
 30
0.0
 10
212.809588
 20
58.013950
 30
0.0
 10
213.453512
 20
57.559742
 30
0.0
 10
213.553534
 20
57.299081
 30
0.0
  0
SPLINE
  5
2e6
100
AcDbEntity
  8
0
 62
7
100
AcDbSpline
 70
8
 71
3
 72
8
 73
4
 74
0
 40
0
 40
0
 40
0
 40
0
 40
1
 40
1
 40
1
 40
1
 10
213.553534
 20
57.299081
 30
0.0
 10
213.653553
 20
57.038449
 30
0.0
 10
213.735389
 20
54.492522
 30
0.0
 10
213.735389
 20
51.641513
 30
0.0
  0
LWPOLYLINE
  5
2e7
100
AcDbEntity
  8
0
 62
7
100
AcDbPolyline
 90
2
 70
1
 10
232.997050
 20
45.897275
 30
0.0
 10
232.997050
 20
45.897275
 30
0.0
  0
SPLINE
  5
2e8
100
AcDbEntity
  8
0
 62
7
100
AcDbSpline
 70
8
 71
3
 72
8
 73
4
 74
0
 40
0
 40
0
 40
0
 40
0
 40
1
 40
1
 40
1
 40
1
 10
212.747612
 20
45.704433
 30
0.0
 10
210.883966
 20
44.282964
 30
0.0
 10
211.234006
 20
44.149642
 30
0.0
 10
216.604918
 20
44.235240
 30
0.0
  0
SPLINE
  5
2e9
100
AcDbEntity
  8
0
 62
7
100
AcDbSpline
 70
8
 71
3
 72
8
 73
4
 74
0
 40
0
 40
0
 40
0
 40
0
 40
1
 40
1
 40
1
 40
1
 10
216.604918
 20
44.235240
 30
0.0
 10
220.043810
 20
44.290048
 30
0.0
 10
221.482452
 20
44.410020
 30
0.0
 10
221.561807
 20
44.648668
 30
0.0
  0
LWPOLYLINE
  5
2ea
100
AcDbEntity
  8
0
 62
7
100
AcDbPolyline
 90
3
 70
1
 10
213.735389
 20
51.641513
 30
0.0
 10
213.735389
 20
46.457853
 30
0.0
 10
212.747612
 20
45.704433
 30
0.0
  0
SPLINE
  5
2eb
100
AcDbEntity
  8
0
 62
7
100
AcDbSpline
 70
8
 71
3
 72
8
 73
4
 74
0
 40
0
 40
0
 40
0
 40
0
 40
1
 40
1
 40
1
 40
1
 10
159.548717
 20
-39.553444
 30
0.0
 10
157.325540
 20
-39.025153
 30
0.0
 10
156.100074
 20
-38.435082
 30
0.0
 10
154.815088
 20
-37.274161
 30
0.0
  0
SPLINE
  5
2ec
100
AcDbEntity
  8
0
 62
7
100
AcDbSpline
 70
8
 71
3
 72
8
 73
4
 74
0
 40
0
 40
0
 40
0
 40
0
 40
1
 40
1
 40
1
 40
1
 10
154.815088
 20
-37.274161
 30
0.0
 10
153.570065
 20
-36.149393
 30
0.0
 10
152.961961
 20
-34.970974
 30
0.0
 10
153.105019
 20
-33.960477
 30
0.0
  0
SPLINE
  5
2ed
100
AcDbEntity
  8
0
 62
7
100
AcDbSpline
 70
8
 71
3
 72
8
 73
4
 74
0
 40
0
 40
0
 40
0
 40
0
 40
1
 40
1
 40
1
 40
1
 10
153.105019
 20
-33.960477
 30
0.0
 10
153.190702
 20
-33.355252
 30
0.0
 10
153.379706
 20
-33.281253
 30
0.0
 10
155.315384
 20
-33.095015
 30
0.0
  0
SPLINE
  5
2ee
100
AcDbEntity
  8
0
 62
7
100
AcDbSpline
 70
8
 71
3
 72
8
 73
4
 74
0
 40
0
 40
0
 40
0
 40
0
 40
1
 40
1
 40
1
 40
1
 10
155.315384
 20
-33.095015
 30
0.0
 10
156.479550
 20
-32.983001
 30
0.0
 10
157.961330
 20
-32.761541
 30
0.0
 10
158.608240
 20
-32.602904
 30
0.0
  0
SPLINE
  5
2ef
100
AcDbEntity
  8
0
 62
7
100
AcDbSpline
 70
8
 71
3
 72
8
 73
4
 74
0
 40
0
 40
0
 40
0
 40
0
 40
1
 40
1
 40
1
 40
1
 10
158.608240
 20
-32.602904
 30
0.0
 10
159.680684
 20
-32.339929
 30
0.0
 10
160.066595
 20
-32.423410
 30
0.0
 10
162.982698
 20
-33.549251
 30
0.0
  0
SPLINE
  5
2f0
100
AcDbEntity
  8
0
 62
7
100
AcDbSpline
 70
8
 71
3
 72
8
 73
4
 74
0
 40
0
 40
0
 40
0
 40
0
 40
1
 40
1
 40
1
 40
1
 10
162.982698
 20
-33.549251
 30
0.0
 10
166.218433
 20
-34.798480
 30
0.0
 10
171.854266
 20
-36.681523
 30
0.0
 10
174.896901
 20
-37.529968
 30
0.0
  0
SPLINE
  5
2f1
100
AcDbEntity
  8
0
 62
7
100
AcDbSpline
 70
8
 71
3
 72
8
 73
4
 74
0
 40
0
 40
0
 40
0
 40
0
 40
1
 40
1
 40
1
 40
1
 10
174.896901
 20
-37.529968
 30
0.0
 10
175.810122
 20
-37.784645
 30
0.0
 10
176.445122
 20
-38.097008
 30
0.0
 10
176.308012
 20
-38.224150
 30
0.0
  0
SPLINE
  5
2f2
100
AcDbEntity
  8
0
 62
7
100
AcDbSpline
 70
8
 71
3
 72
8
 73
4
 74
0
 40
0
 40
0
 40
0
 40
0
 40
1
 40
1
 40
1
 40
1
 10
176.308012
 20
-38.224150
 30
0.0
 10
175.866589
 20
-38.633456
 30
0.0
 10
167.980385
 20
-39.690181
 30
0.0
 10
164.487612
 20
-39.808009
 30
0.0
  0
SPLINE
  5
2f3
100
AcDbEntity
  8
0
 62
7
100
AcDbSpline
 70
8
 71
3
 72
8
 73
4
 74
0
 40
0
 40
0
 40
0
 40
0
 40
1
 40
1
 40
1
 40
1
 10
164.487612
 20
-39.808009
 30
0.0
 10
162.291866
 20
-39.882092
 30
0.0
 10
160.555093
 20
-39.792487
 30
0.0
 10
159.548717
 20
-39.553444
 30
0.0
  0
LWPOLYLINE
  5
2f4
100
AcDbEntity
  8
0
 62
7
100
AcDbPolyline
 90
2
 70
1
 10
221.561807
 20
44.648668
 30
0.0
 10
221.561807
 20
44.648668
 30
0.0
  0
SPLINE
  5
2f5
100
AcDbEntity
  8
0
 62
7
100
AcDbSpline
 70
8
 71
3
 72
8
 73
4
 74
0
 40
0
 40
0
 40
0
 40
0
 40
1
 40
1
 40
1
 40
1
 10
268.909828
 20
-39.757294
 30
0.0
 10
268.444162
 20
-39.688601
 30
0.0
 10
266.221662
 20
-39.367940
 30
0.0
 10
263.970939
 20
-39.044711
 30
0.0
  0
SPLINE
  5
2f6
100
AcDbEntity
  8
0
 62
7
100
AcDbSpline
 70
8
 71
3
 72
8
 73
4
 74
0
 40
0
 40
0
 40
0
 40
0
 40
1
 40
1
 40
1
 40
1
 10
263.970939
 20
-39.044711
 30
0.0
 10
261.720217
 20
-38.721510
 30
0.0
 10
259.768030
 20
-38.354141
 30
0.0
 10
259.632760
 20
-38.228355
 30
0.0
  0
SPLINE
  5
2f7
100
AcDbEntity
  8
0
 62
7
100
AcDbSpline
 70
8
 71
3
 72
8
 73
4
 74
0
 40
0
 40
0
 40
0
 40
0
 40
1
 40
1
 40
1
 40
1
 10
259.632760
 20
-38.228355
 30
0.0
 10
259.497491
 20
-38.102596
 30
0.0
 10
260.322991
 20
-37.728172
 30
0.0
 10
261.467205
 20
-37.396335
 30
0.0
  0
SPLINE
  5
2f8
100
AcDbEntity
  8
0
 62
7
100
AcDbSpline
 70
8
 71
3
 72
8
 73
4
 74
0
 40
0
 40
0
 40
0
 40
0
 40
1
 40
1
 40
1
 40
1
 10
261.467205
 20
-37.396335
 30
0.0
 10
265.356284
 20
-36.268462
 30
0.0
 10
269.748113
 20
-34.783945
 30
0.0
 10
272.951194
 20
-33.514594
 30
0.0
  0
SPLINE
  5
2f9
100
AcDbEntity
  8
0
 62
7
100
AcDbSpline
 70
8
 71
3
 72
8
 73
4
 74
0
 40
0
 40
0
 40
0
 40
0
 40
1
 40
1
 40
1
 40
1
 10
272.951194
 20
-33.514594
 30
0.0
 10
275.943201
 20
-32.328894
 30
0.0
 10
276.220738
 20
-32.269007
 30
0.0
 10
277.325638
 20
-32.570476
 30
0.0
  0
SPLINE
  5
2fa
100
AcDbEntity
  8
0
 62
7
100
AcDbSpline
 70
8
 71
3
 72
8
 73
4
 74
0
 40
0
 40
0
 40
0
 40
0
 40
1
 40
1
 40
1
 40
1
 10
277.325638
 20
-32.570476
 30
0.0
 10
277.974496
 20
-32.747514
 30
0.0
 10
279.457884
 20
-32.983791
 30
0.0
 10
280.622050
 20
-33.095523
 30
0.0
  0
SPLINE
  5
2fb
100
AcDbEntity
  8
0
 62
7
100
AcDbSpline
 70
8
 71
3
 72
8
 73
4
 74
0
 40
0
 40
0
 40
0
 40
0
 40
1
 40
1
 40
1
 40
1
 10
280.622050
 20
-33.095523
 30
0.0
 10
282.720852
 20
-33.296945
 30
0.0
 10
282.739423
 20
-33.305891
 30
0.0
 10
282.822565
 20
-34.154420
 30
0.0
  0
SPLINE
  5
2fc
100
AcDbEntity
  8
0
 62
7
100
AcDbSpline
 70
8
 71
3
 72
8
 73
4
 74
0
 40
0
 40
0
 40
0
 40
0
 40
1
 40
1
 40
1
 40
1
 10
282.822565
 20
-34.154420
 30
0.0
 10
282.990036
 20
-35.863530
 30
0.0
 10
280.784244
 20
-38.102879
 30
0.0
 10
277.931513
 20
-39.119838
 30
0.0
  0
SPLINE
  5
2fd
100
AcDbEntity
  8
0
 62
7
100
AcDbSpline
 70
8
 71
3
 72
8
 73
4
 74
0
 40
0
 40
0
 40
0
 40
0
 40
1
 40
1
 40
1
 40
1
 10
277.931513
 20
-39.119838
 30
0.0
 10
276.667412
 20
-39.570491
 30
0.0
 10
275.438475
 20
-39.740360
 30
0.0
 10
273.002050
 20
-39.801207
 30
0.0
  0
SPLINE
  5
2fe
100
AcDbEntity
  8
0
 62
7
100
AcDbSpline
 70
8
 71
3
 72
8
 73
4
 74
0
 40
0
 40
0
 40
0
 40
0
 40
1
 40
1
 40
1
 40
1
 10
273.002050
 20
-39.801207
 30
0.0
 10
271.216995
 20
-39.845770
 30
0.0
 10
269.375495
 20
-39.826043
 30
0.0
 10
268.909828
 20
-39.757294
 30
0.0
  0
LWPOLYLINE
  5
2ff
100
AcDbEntity
  8
0
 62
7
100
AcDbPolyline
 90
2
 70
1
 10
159.548717
 20
-39.553444
 30
0.0
 10
159.548717
 20
-39.553444
 30
0.0
  0
SPLINE
  5
300
100
AcDbEntity
  8
0
 62
7
100
AcDbSpline
 70
8
 71
3
 72
8
 73
4
 74
0
 40
0
 40
0
 40
0
 40
0
 40
1
 40
1
 40
1
 40
1
 10
154.939097
 20
-31.276092
 30
0.0
 10
154.376092
 20
-30.713087
 30
0.0
 10
155.437501
 20
-30.133346
 30
0.0
 10
156.070074
 20
-30.658336
 30
0.0
  0
SPLINE
  5
301
100
AcDbEntity
  8
0
 62
7
100
AcDbSpline
 70
8
 71
3
 72
8
 73
4
 74
0
 40
0
 40
0
 40
0
 40
0
 40
1
 40
1
 40
1
 40
1
 10
156.070074
 20
-30.658336
 30
0.0
 10
156.394150
 20
-30.927294
 30
0.0
 10
156.400810
 20
-31.035583
 30
0.0
 10
156.104844
 20
-31.223317
 30
0.0
  0
SPLINE
  5
302
100
AcDbEntity
  8
0
 62
7
100
AcDbSpline
 70
8
 71
3
 72
8
 73
4
 74
0
 40
0
 40
0
 40
0
 40
0
 40
1
 40
1
 40
1
 40
1
 10
156.104844
 20
-31.223317
 30
0.0
 10
155.657973
 20
-31.506809
 30
0.0
 10
155.190952
 20
-31.527948
 30
0.0
 10
154.939097
 20
-31.276092
 30
0.0
  0
LWPOLYLINE
  5
303
100
AcDbEntity
  8
0
 62
7
100
AcDbPolyline
 90
2
 70
1
 10
268.909828
 20
-39.757294
 30
0.0
 10
268.909828
 20
-39.757294
 30
0.0
  0
SPLINE
  5
304
100
AcDbEntity
  8
0
 62
7
100
AcDbSpline
 70
8
 71
3
 72
8
 73
4
 74
0
 40
0
 40
0
 40
0
 40
0
 40
1
 40
1
 40
1
 40
1
 10
279.775384
 20
-31.177682
 30
0.0
 10
279.399097
 20
-30.930652
 30
0.0
 10
279.399097
 20
-30.868902
 30
0.0
 10
279.775384
 20
-30.621873
 30
0.0
  0
SPLINE
  5
305
100
AcDbEntity
  8
0
 62
7
100
AcDbSpline
 70
8
 71
3
 72
8
 73
4
 74
0
 40
0
 40
0
 40
0
 40
0
 40
1
 40
1
 40
1
 40
1
 10
279.775384
 20
-30.621873
 30
0.0
 10
280.293092
 20
-30.282021
 30
0.0
 10
280.379198
 20
-30.279538
 30
0.0
 10
280.869870
 20
-30.590321
 30
0.0
  0
SPLINE
  5
306
100
AcDbEntity
  8
0
 62
7
100
AcDbSpline
 70
8
 71
3
 72
8
 73
4
 74
0
 40
0
 40
0
 40
0
 40
0
 40
1
 40
1
 40
1
 40
1
 10
280.869870
 20
-30.590321
 30
0.0
 10
281.298819
 20
-30.862016
 30
0.0
 10
281.065817
 20
-31.466734
 30
0.0
 10
280.534844
 20
-31.459904
 30
0.0
  0
SPLINE
  5
307
100
AcDbEntity
  8
0
 62
7
100
AcDbSpline
 70
8
 71
3
 72
8
 73
4
 74
0
 40
0
 40
0
 40
0
 40
0
 40
1
 40
1
 40
1
 40
1
 10
280.534844
 20
-31.459904
 30
0.0
 10
280.349960
 20
-31.457082
 30
0.0
 10
280.008217
 20
-31.330533
 30
0.0
 10
279.775384
 20
-31.177682
 30
0.0
  0
LWPOLYLINE
  5
308
100
AcDbEntity
  8
0
 62
7
100
AcDbPolyline
 90
2
 70
1
 10
154.939097
 20
-31.276092
 30
0.0
 10
154.939097
 20
-31.276092
 30
0.0
  0
SPLINE
  5
309
100
AcDbEntity
  8
0
 62
7
100
AcDbSpline
 70
8
 71
3
 72
8
 73
4
 74
0
 40
0
 40
0
 40
0
 40
0
 40
1
 40
1
 40
1
 40
1
 10
148.239649
 20
-30.750200
 30
0.0
 10
139.530638
 20
-29.392485
 30
0.0
 10
132.470991
 20
-26.143881
 30
0.0
 10
131.641229
 20
-23.112222
 30
0.0
  0
SPLINE
  5
30a
100
AcDbEntity
  8
0
 62
7
100
AcDbSpline
 70
8
 71
3
 72
8
 73
4
 74
0
 40
0
 40
0
 40
0
 40
0
 40
1
 40
1
 40
1
 40
1
 10
131.641229
 20
-23.112222
 30
0.0
 10
131.396345
 20
-22.217521
 30
0.0
 10
131.698153
 20
-20.751123
 30
0.0
 10
132.189700
 20
-20.447339
 30
0.0
  0
SPLINE
  5
30b
100
AcDbEntity
  8
0
 62
7
100
AcDbSpline
 70
8
 71
3
 72
8
 73
4
 74
0
 40
0
 40
0
 40
0
 40
0
 40
1
 40
1
 40
1
 40
1
 10
132.189700
 20
-20.447339
 30
0.0
 10
132.359710
 20
-20.342267
 30
0.0
 10
133.092275
 20
-20.369728
 30
0.0
 10
133.817642
 20
-20.508355
 30
0.0
  0
SPLINE
  5
30c
100
AcDbEntity
  8
0
 62
7
100
AcDbSpline
 70
8
 71
3
 72
8
 73
4
 74
0
 40
0
 40
0
 40
0
 40
0
 40
1
 40
1
 40
1
 40
1
 10
133.817642
 20
-20.508355
 30
0.0
 10
134.543010
 20
-20.646954
 30
0.0
 10
136.025495
 20
-20.772938
 30
0.0
 10
137.112050
 20
-20.788320
 30
0.0
  0
SPLINE
  5
30d
100
AcDbEntity
  8
0
 62
7
100
AcDbSpline
 70
8
 71
3
 72
8
 73
4
 74
0
 40
0
 40
0
 40
0
 40
0
 40
1
 40
1
 40
1
 40
1
 10
137.112050
 20
-20.788320
 30
0.0
 10
139.039798
 20
-20.815695
 30
0.0
 10
139.152517
 20
-20.858678
 30
0.0
 10
141.768717
 20
-22.568916
 30
0.0
  0
SPLINE
  5
30e
100
AcDbEntity
  8
0
 62
7
100
AcDbSpline
 70
8
 71
3
 72
8
 73
4
 74
0
 40
0
 40
0
 40
0
 40
0
 40
1
 40
1
 40
1
 40
1
 10
141.768717
 20
-22.568916
 30
0.0
 10
145.496167
 20
-25.005538
 30
0.0
 10
148.345765
 20
-26.700621
 30
0.0
 10
150.750016
 20
-27.911354
 30
0.0
  0
SPLINE
  5
30f
100
AcDbEntity
  8
0
 62
7
100
AcDbSpline
 70
8
 71
3
 72
8
 73
4
 74
0
 40
0
 40
0
 40
0
 40
0
 40
1
 40
1
 40
1
 40
1
 10
150.750016
 20
-27.911354
 30
0.0
 10
151.877889
 20
-28.479355
 30
0.0
 10
152.874585
 20
-29.136566
 30
0.0
 10
152.964868
 20
-29.371854
 30
0.0
  0
SPLINE
  5
310
100
AcDbEntity
  8
0
 62
7
100
AcDbSpline
 70
8
 71
3
 72
8
 73
4
 74
0
 40
0
 40
0
 40
0
 40
0
 40
1
 40
1
 40
1
 40
1
 10
152.964868
 20
-29.371854
 30
0.0
 10
153.184578
 20
-29.944370
 30
0.0
 10
151.983412
 20
-31.189140
 30
0.0
 10
151.244526
 20
-31.154680
 30
0.0
  0
SPLINE
  5
311
100
AcDbEntity
  8
0
 62
7
100
AcDbSpline
 70
8
 71
3
 72
8
 73
4
 74
0
 40
0
 40
0
 40
0
 40
0
 40
1
 40
1
 40
1
 40
1
 10
151.244526
 20
-31.154680
 30
0.0
 10
150.922341
 20
-31.139723
 30
0.0
 10
149.570130
 20
-30.957633
 30
0.0
 10
148.239649
 20
-30.750200
 30
0.0
  0
LWPOLYLINE
  5
312
100
AcDbEntity
  8
0
 62
7
100
AcDbPolyline
 90
2
 70
1
 10
279.775384
 20
-31.177682
 30
0.0
 10
279.775384
 20
-31.177682
 30
0.0
  0
SPLINE
  5
313
100
AcDbEntity
  8
0
 62
7
100
AcDbSpline
 70
8
 71
3
 72
8
 73
4
 74
0
 40
0
 40
0
 40
0
 40
0
 40
1
 40
1
 40
1
 40
1
 10
283.367706
 20
-30.402699
 30
0.0
 10
282.944147
 20
-29.960598
 30
0.0
 10
282.597606
 20
-29.512429
 30
0.0
 10
282.597606
 20
-29.406737
 30
0.0
  0
SPLINE
  5
314
100
AcDbEntity
  8
0
 62
7
100
AcDbSpline
 70
8
 71
3
 72
8
 73
4
 74
0
 40
0
 40
0
 40
0
 40
0
 40
1
 40
1
 40
1
 40
1
 10
282.597606
 20
-29.406737
 30
0.0
 10
282.597606
 20
-29.301045
 30
0.0
 10
283.391356
 20
-28.816272
 30
0.0
 10
284.361495
 20
-28.329438
 30
0.0
  0
SPLINE
  5
315
100
AcDbEntity
  8
0
 62
7
100
AcDbSpline
 70
8
 71
3
 72
8
 73
4
 74
0
 40
0
 40
0
 40
0
 40
0
 40
1
 40
1
 40
1
 40
1
 10
284.361495
 20
-28.329438
 30
0.0
 10
287.043904
 20
-26.983408
 30
0.0
 10
289.726483
 20
-25.403302
 30
0.0
 10
293.515965
 20
-22.937216
 30
0.0
  0
SPLINE
  5
316
100
AcDbEntity
  8
0
 62
7
100
AcDbSpline
 70
8
 71
3
 72
8
 73
4
 74
0
 40
0
 40
0
 40
0
 40
0
 40
1
 40
1
 40
1
 40
1
 10
293.515965
 20
-22.937216
 30
0.0
 10
296.101714
 20
-21.254494
 30
0.0
 10
297.152483
 20
-20.719824
 30
0.0
 10
297.749299
 20
-20.783127
 30
0.0
  0
SPLINE
  5
317
100
AcDbEntity
  8
0
 62
7
100
AcDbSpline
 70
8
 71
3
 72
8
 73
4
 74
0
 40
0
 40
0
 40
0
 40
0
 40
1
 40
1
 40
1
 40
1
 10
297.749299
 20
-20.783127
 30
0.0
 10
298.185925
 20
-20.829439
 30
0.0
 10
299.735438
 20
-20.764218
 30
0.0
 10
301.192636
 20
-20.638206
 30
0.0
  0
SPLINE
  5
318
100
AcDbEntity
  8
0
 62
7
100
AcDbSpline
 70
8
 71
3
 72
8
 73
4
 74
0
 40
0
 40
0
 40
0
 40
0
 40
1
 40
1
 40
1
 40
1
 10
301.192636
 20
-20.638206
 30
0.0
 10
304.213119
 20
-20.377009
 30
0.0
 10
304.317456
 20
-20.434695
 30
0.0
 10
304.324399
 20
-22.368877
 30
0.0
  0
SPLINE
  5
319
100
AcDbEntity
  8
0
 62
7
100
AcDbSpline
 70
8
 71
3
 72
8
 73
4
 74
0
 40
0
 40
0
 40
0
 40
0
 40
1
 40
1
 40
1
 40
1
 10
304.324399
 20
-22.368877
 30
0.0
 10
304.328068
 20
-23.389054
 30
0.0
 10
304.152582
 20
-23.765708
 30
0.0
 10
303.184108
 20
-24.816364
 30
0.0
  0
SPLINE
  5
31a
100
AcDbEntity
  8
0
 62
7
100
AcDbSpline
 70
8
 71
3
 72
8
 73
4
 74
0
 40
0
 40
0
 40
0
 40
0
 40
1
 40
1
 40
1
 40
1
 10
303.184108
 20
-24.816364
 30
0.0
 10
300.764448
 20
-27.441398
 30
0.0
 10
293.062604
 20
-30.176442
 30
0.0
 10
285.696039
 20
-31.026664
 30
0.0
  0
SPLINE
  5
31b
100
AcDbEntity
  8
0
 62
7
100
AcDbSpline
 70
8
 71
3
 72
8
 73
4
 74
0
 40
0
 40
0
 40
0
 40
0
 40
1
 40
1
 40
1
 40
1
 10
285.696039
 20
-31.026664
 30
0.0
 10
284.240619
 20
-31.194615
 30
0.0
 10
284.086949
 20
-31.153439
 30
0.0
 10
283.367706
 20
-30.402699
 30
0.0
  0
LWPOLYLINE
  5
31c
100
AcDbEntity
  8
0
 62
7
100
AcDbPolyline
 90
2
 70
1
 10
148.239649
 20
-30.750200
 30
0.0
 10
148.239649
 20
-30.750200
 30
0.0
  0
SPLINE
  5
31d
100
AcDbEntity
  8
0
 62
7
100
AcDbSpline
 70
8
 71
3
 72
8
 73
4
 74
0
 40
0
 40
0
 40
0
 40
0
 40
1
 40
1
 40
1
 40
1
 10
134.854273
 20
-18.774692
 30
0.0
 10
134.336113
 20
-18.561614
 30
0.0
 10
134.330327
 20
-18.526054
 30
0.0
 10
134.783717
 20
-18.341001
 30
0.0
  0
SPLINE
  5
31e
100
AcDbEntity
  8
0
 62
7
100
AcDbSpline
 70
8
 71
3
 72
8
 73
4
 74
0
 40
0
 40
0
 40
0
 40
0
 40
1
 40
1
 40
1
 40
1
 10
134.783717
 20
-18.341001
 30
0.0
 10
135.363825
 20
-18.104217
 30
0.0
 10
136.124273
 20
-18.338179
 30
0.0
 10
136.124273
 20
-18.755360
 30
0.0
  0
SPLINE
  5
31f
100
AcDbEntity
  8
0
 62
7
100
AcDbSpline
 70
8
 71
3
 72
8
 73
4
 74
0
 40
0
 40
0
 40
0
 40
0
 40
1
 40
1
 40
1
 40
1
 10
136.124273
 20
-18.755360
 30
0.0
 10
136.124273
 20
-19.094930
 30
0.0
 10
135.650591
 20
-19.102126
 30
0.0
 10
134.854273
 20
-18.774551
 30
0.0
  0
LWPOLYLINE
  5
320
100
AcDbEntity
  8
0
 62
7
100
AcDbPolyline
 90
2
 70
1
 10
283.367706
 20
-30.402699
 30
0.0
 10
283.367706
 20
-30.402699
 30
0.0
  0
SPLINE
  5
321
100
AcDbEntity
  8
0
 62
7
100
AcDbSpline
 70
8
 71
3
 72
8
 73
4
 74
0
 40
0
 40
0
 40
0
 40
0
 40
1
 40
1
 40
1
 40
1
 10
138.423565
 20
-18.592207
 30
0.0
 10
137.564594
 20
-17.990566
 30
0.0
 10
138.015416
 20
-17.509913
 30
0.0
 10
139.064605
 20
-17.908806
 30
0.0
  0
SPLINE
  5
322
100
AcDbEntity
  8
0
 62
7
100
AcDbSpline
 70
8
 71
3
 72
8
 73
4
 74
0
 40
0
 40
0
 40
0
 40
0
 40
1
 40
1
 40
1
 40
1
 10
139.064605
 20
-17.908806
 30
0.0
 10
139.490535
 20
-18.070745
 30
0.0
 10
139.789041
 20
-18.353278
 30
0.0
 10
139.727912
 20
-18.536666
 30
0.0
  0
SPLINE
  5
323
100
AcDbEntity
  8
0
 62
7
100
AcDbSpline
 70
8
 71
3
 72
8
 73
4
 74
0
 40
0
 40
0
 40
0
 40
0
 40
1
 40
1
 40
1
 40
1
 10
139.727912
 20
-18.536666
 30
0.0
 10
139.551100
 20
-19.067103
 30
0.0
 10
139.127343
 20
-19.085137
 30
0.0
 10
138.423565
 20
-18.592207
 30
0.0
  0
LWPOLYLINE
  5
324
100
AcDbEntity
  8
0
 62
7
100
AcDbPolyline
 90
2
 70
1
 10
134.854273
 20
-18.774551
 30
0.0
 10
134.854273
 20
-18.774692
 30
0.0
  0
SPLINE
  5
325
100
AcDbEntity
  8
0
 62
7
100
AcDbSpline
 70
8
 71
3
 72
8
 73
4
 74
0
 40
0
 40
0
 40
0
 40
0
 40
1
 40
1
 40
1
 40
1
 10
296.270172
 20
-18.739640
 30
0.0
 10
296.039794
 20
-18.366825
 30
0.0
 10
296.355375
 20
-18.045120
 30
0.0
 10
297.202606
 20
-17.789144
 30
0.0
  0
SPLINE
  5
326
100
AcDbEntity
  8
0
 62
7
100
AcDbSpline
 70
8
 71
3
 72
8
 73
4
 74
0
 40
0
 40
0
 40
0
 40
0
 40
1
 40
1
 40
1
 40
1
 10
297.202606
 20
-17.789144
 30
0.0
 10
297.976036
 20
-17.555492
 30
0.0
 10
298.065811
 20
-18.105430
 30
0.0
 10
297.343717
 20
-18.653591
 30
0.0
  0
SPLINE
  5
327
100
AcDbEntity
  8
0
 62
7
100
AcDbSpline
 70
8
 71
3
 72
8
 73
4
 74
0
 40
0
 40
0
 40
0
 40
0
 40
1
 40
1
 40
1
 40
1
 10
297.343717
 20
-18.653591
 30
0.0
 10
296.734625
 20
-19.115955
 30
0.0
 10
296.513702
 20
-19.133651
 30
0.0
 10
296.270172
 20
-18.739640
 30
0.0
  0
LWPOLYLINE
  5
328
100
AcDbEntity
  8
0
 62
7
100
AcDbPolyline
 90
2
 70
1
 10
138.423565
 20
-18.592207
 30
0.0
 10
138.423565
 20
-18.592207
 30
0.0
  0
SPLINE
  5
329
100
AcDbEntity
  8
0
 62
7
100
AcDbSpline
 70
8
 71
3
 72
8
 73
4
 74
0
 40
0
 40
0
 40
0
 40
0
 40
1
 40
1
 40
1
 40
1
 10
299.813162
 20
-18.623111
 30
0.0
 10
300.193061
 20
-18.165346
 30
0.0
 10
301.224273
 20
-18.040181
 30
0.0
 10
301.224273
 20
-18.451802
 30
0.0
  0
SPLINE
  5
32a
100
AcDbEntity
  8
0
 62
7
100
AcDbSpline
 70
8
 71
3
 72
8
 73
4
 74
0
 40
0
 40
0
 40
0
 40
0
 40
1
 40
1
 40
1
 40
1
 10
301.224273
 20
-18.451802
 30
0.0
 10
301.224273
 20
-18.739612
 30
0.0
 10
300.539178
 20
-19.046444
 30
0.0
 10
299.896643
 20
-19.046444
 30
0.0
  0
SPLINE
  5
32b
100
AcDbEntity
  8
0
 62
7
100
AcDbSpline
 70
8
 71
3
 72
8
 73
4
 74
0
 40
0
 40
0
 40
0
 40
0
 40
1
 40
1
 40
1
 40
1
 10
299.896643
 20
-19.046444
 30
0.0
 10
299.542144
 20
-19.046444
 30
0.0
 10
299.526706
 20
-18.968268
 30
0.0
 10
299.813162
 20
-18.623111
 30
0.0
  0
LWPOLYLINE
  5
32c
100
AcDbEntity
  8
0
 62
7
100
AcDbPolyline
 90
2
 70
1
 10
296.270172
 20
-18.739640
 30
0.0
 10
296.270172
 20
-18.739640
 30
0.0
  0
SPLINE
  5
32d
100
AcDbEntity
  8
0
 62
7
100
AcDbSpline
 70
8
 71
3
 72
8
 73
4
 74
0
 40
0
 40
0
 40
0
 40
0
 40
1
 40
1
 40
1
 40
1
 10
128.565854
 20
-16.931555
 30
0.0
 10
123.342287
 20
-14.831709
 30
0.0
 10
118.428318
 20
-11.817660
 30
0.0
 10
116.086692
 20
-9.277322
 30
0.0
  0
SPLINE
  5
32e
100
AcDbEntity
  8
0
 62
7
100
AcDbSpline
 70
8
 71
3
 72
8
 73
4
 74
0
 40
0
 40
0
 40
0
 40
0
 40
1
 40
1
 40
1
 40
1
 10
116.086692
 20
-9.277322
 30
0.0
 10
113.984419
 20
-6.996599
 30
0.0
 10
112.987497
 20
-4.123549
 30
0.0
 10
113.960712
 20
-3.150334
 30
0.0
  0
SPLINE
  5
32f
100
AcDbEntity
  8
0
 62
7
100
AcDbSpline
 70
8
 71
3
 72
8
 73
4
 74
0
 40
0
 40
0
 40
0
 40
0
 40
1
 40
1
 40
1
 40
1
 10
113.960712
 20
-3.150334
 30
0.0
 10
114.324836
 20
-2.786182
 30
0.0
 10
114.657519
 20
-2.834471
 30
0.0
 10
116.712379
 20
-3.549735
 30
0.0
  0
SPLINE
  5
330
100
AcDbEntity
  8
0
 62
7
100
AcDbSpline
 70
8
 71
3
 72
8
 73
4
 74
0
 40
0
 40
0
 40
0
 40
0
 40
1
 40
1
 40
1
 40
1
 10
116.712379
 20
-3.549735
 30
0.0
 10
117.997958
 20
-3.997226
 30
0.0
 10
119.430828
 20
-4.373965
 30
0.0
 10
119.896495
 20
-4.386947
 30
0.0
  0
SPLINE
  5
331
100
AcDbEntity
  8
0
 62
7
100
AcDbSpline
 70
8
 71
3
 72
8
 73
4
 74
0
 40
0
 40
0
 40
0
 40
0
 40
1
 40
1
 40
1
 40
1
 10
119.896495
 20
-4.386947
 30
0.0
 10
121.211509
 20
-4.423636
 30
0.0
 10
121.465792
 20
-4.613769
 30
0.0
 10
124.088285
 20
-7.521448
 30
0.0
  0
SPLINE
  5
332
100
AcDbEntity
  8
0
 62
7
100
AcDbSpline
 70
8
 71
3
 72
8
 73
4
 74
0
 40
0
 40
0
 40
0
 40
0
 40
1
 40
1
 40
1
 40
1
 10
124.088285
 20
-7.521448
 30
0.0
 10
125.441146
 20
-9.021403
 30
0.0
 10
128.067675
 20
-11.608026
 30
0.0
 10
129.925036
 20
-13.269524
 30
0.0
  0
SPLINE
  5
333
100
AcDbEntity
  8
0
 62
7
100
AcDbSpline
 70
8
 71
3
 72
8
 73
4
 74
0
 40
0
 40
0
 40
0
 40
0
 40
1
 40
1
 40
1
 40
1
 10
129.925036
 20
-13.269524
 30
0.0
 10
131.782397
 20
-14.930995
 30
0.0
 10
133.302050
 20
-16.442492
 30
0.0
 10
133.302050
 20
-16.628392
 30
0.0
  0
SPLINE
  5
334
100
AcDbEntity
  8
0
 62
7
100
AcDbSpline
 70
8
 71
3
 72
8
 73
4
 74
0
 40
0
 40
0
 40
0
 40
0
 40
1
 40
1
 40
1
 40
1
 10
133.302050
 20
-16.628392
 30
0.0
 10
133.302050
 20
-16.942167
 30
0.0
 10
131.559244
 20
-17.946511
 30
0.0
 10
131.105261
 20
-17.894328
 30
0.0
  0
SPLINE
  5
335
100
AcDbEntity
  8
0
 62
7
100
AcDbSpline
 70
8
 71
3
 72
8
 73
4
 74
0
 40
0
 40
0
 40
0
 40
0
 40
1
 40
1
 40
1
 40
1
 10
131.105261
 20
-17.894328
 30
0.0
 10
130.994094
 20
-17.881628
 30
0.0
 10
129.851376
 20
-17.448304
 30
0.0
 10
128.565854
 20
-16.931555
 30
0.0
  0
LWPOLYLINE
  5
336
100
AcDbEntity
  8
0
 62
7
100
AcDbPolyline
 90
2
 70
1
 10
299.813162
 20
-18.623111
 30
0.0
 10
299.813162
 20
-18.623111
 30
0.0
  0
SPLINE
  5
337
100
AcDbEntity
  8
0
 62
7
100
AcDbSpline
 70
8
 71
3
 72
8
 73
4
 74
0
 40
0
 40
0
 40
0
 40
0
 40
1
 40
1
 40
1
 40
1
 10
303.552606
 20
-17.424964
 30
0.0
 10
303.048134
 20
-17.173900
 30
0.0
 10
302.641536
 20
-16.769278
 30
0.0
 10
302.649100
 20
-16.525804
 30
0.0
  0
SPLINE
  5
338
100
AcDbEntity
  8
0
 62
7
100
AcDbSpline
 70
8
 71
3
 72
8
 73
4
 74
0
 40
0
 40
0
 40
0
 40
0
 40
1
 40
1
 40
1
 40
1
 10
302.649100
 20
-16.525804
 30
0.0
 10
302.656720
 20
-16.282331
 30
0.0
 10
303.363432
 20
-15.511611
 30
0.0
 10
304.219751
 20
-14.813111
 30
0.0
  0
SPLINE
  5
339
100
AcDbEntity
  8
0
 62
7
100
AcDbSpline
 70
8
 71
3
 72
8
 73
4
 74
0
 40
0
 40
0
 40
0
 40
0
 40
1
 40
1
 40
1
 40
1
 10
304.219751
 20
-14.813111
 30
0.0
 10
305.076070
 20
-14.114611
 30
0.0
 10
307.810662
 20
-11.479361
 30
0.0
 10
310.296588
 20
-8.957000
 30
0.0
  0
SPLINE
  5
33a
100
AcDbEntity
  8
0
 62
7
100
AcDbSpline
 70
8
 71
3
 72
8
 73
4
 74
0
 40
0
 40
0
 40
0
 40
0
 40
1
 40
1
 40
1
 40
1
 10
310.296588
 20
-8.957000
 30
0.0
 10
314.499893
 20
-4.692114
 30
0.0
 10
314.889021
 20
-4.370634
 30
0.0
 10
315.852048
 20
-4.367107
 30
0.0
  0
SPLINE
  5
33b
100
AcDbEntity
  8
0
 62
7
100
AcDbSpline
 70
8
 71
3
 72
8
 73
4
 74
0
 40
0
 40
0
 40
0
 40
0
 40
1
 40
1
 40
1
 40
1
 10
315.852048
 20
-4.367107
 30
0.0
 10
316.421601
 20
-4.364284
 30
0.0
 10
317.939448
 20
-3.997226
 30
0.0
 10
319.225055
 20
-3.549735
 30
0.0
  0
SPLINE
  5
33c
100
AcDbEntity
  8
0
 62
7
100
AcDbSpline
 70
8
 71
3
 72
8
 73
4
 74
0
 40
0
 40
0
 40
0
 40
0
 40
1
 40
1
 40
1
 40
1
 10
319.225055
 20
-3.549735
 30
0.0
 10
321.279915
 20
-2.834471
 30
0.0
 10
321.612599
 20
-2.786182
 30
0.0
 10
321.976722
 20
-3.150334
 30
0.0
  0
SPLINE
  5
33d
100
AcDbEntity
  8
0
 62
7
100
AcDbSpline
 70
8
 71
3
 72
8
 73
4
 74
0
 40
0
 40
0
 40
0
 40
0
 40
1
 40
1
 40
1
 40
1
 10
321.976722
 20
-3.150334
 30
0.0
 10
323.040502
 20
-4.214114
 30
0.0
 10
321.796946
 20
-7.298972
 30
0.0
 10
319.332017
 20
-9.710900
 30
0.0
  0
SPLINE
  5
33e
100
AcDbEntity
  8
0
 62
7
100
AcDbSpline
 70
8
 71
3
 72
8
 73
4
 74
0
 40
0
 40
0
 40
0
 40
0
 40
1
 40
1
 40
1
 40
1
 10
319.332017
 20
-9.710900
 30
0.0
 10
317.338456
 20
-11.661592
 30
0.0
 10
314.641258
 20
-13.484013
 30
0.0
 10
311.243162
 20
-15.176274
 30
0.0
  0
SPLINE
  5
33f
100
AcDbEntity
  8
0
 62
7
100
AcDbSpline
 70
8
 71
3
 72
8
 73
4
 74
0
 40
0
 40
0
 40
0
 40
0
 40
1
 40
1
 40
1
 40
1
 10
311.243162
 20
-15.176274
 30
0.0
 10
309.216213
 20
-16.185670
 30
0.0
 10
304.777168
 20
-17.984696
 30
0.0
 10
304.523563
 20
-17.899521
 30
0.0
  0
SPLINE
  5
340
100
AcDbEntity
  8
0
 62
7
100
AcDbSpline
 70
8
 71
3
 72
8
 73
4
 74
0
 40
0
 40
0
 40
0
 40
0
 40
1
 40
1
 40
1
 40
1
 10
304.523563
 20
-17.899521
 30
0.0
 10
304.494015
 20
-17.889643
 30
0.0
 10
304.057078
 20
-17.676058
 30
0.0
 10
303.552606
 20
-17.424964
 30
0.0
  0
LWPOLYLINE
  5
341
100
AcDbEntity
  8
0
 62
7
100
AcDbPolyline
 90
2
 70
1
 10
128.565854
 20
-16.931555
 30
0.0
 10
128.565854
 20
-16.931555
 30
0.0
  0
LWPOLYLINE
  5
342
100
AcDbEntity
  8
0
 62
7
100
AcDbPolyline
 90
2
 70
1
 10
303.552606
 20
-17.424964
 30
0.0
 10
303.552606
 20
-17.424964
 30
0.0
  0
SPLINE
  5
343
100
AcDbEntity
  8
0
 62
7
100
AcDbSpline
 70
8
 71
3
 72
8
 73
4
 74
0
 40
0
 40
0
 40
0
 40
0
 40
1
 40
1
 40
1
 40
1
 10
-45.909061
 20
1.042331
 30
0.0
 10
-43.240791
 20
2.351814
 30
0.0
 10
-42.195750
 20
2.544346
 30
0.0
 10
-41.372959
 20
1.878104
 30
0.0
  0
SPLINE
  5
344
100
AcDbEntity
  8
0
 62
7
100
AcDbSpline
 70
8
 71
3
 72
8
 73
4
 74
0
 40
0
 40
0
 40
0
 40
0
 40
1
 40
1
 40
1
 40
1
 10
-41.372959
 20
1.878104
 30
0.0
 10
-40.816361
 20
1.427395
 30
0.0
 10
-40.785062
 20
1.274459
 30
0.0
 10
-41.071998
 20
0.407106
 30
0.0
  0
SPLINE
  5
345
100
AcDbEntity
  8
0
 62
7
100
AcDbSpline
 70
8
 71
3
 72
8
 73
4
 74
0
 40
0
 40
0
 40
0
 40
0
 40
1
 40
1
 40
1
 40
1
 10
-41.071998
 20
0.407106
 30
0.0
 10
-41.561258
 20
-1.071824
 30
0.0
 10
-43.706203
 20
-3.615436
 30
0.0
 10
-45.801901
 20
-5.201948
 30
0.0
  0
SPLINE
  5
346
100
AcDbEntity
  8
0
 62
7
100
AcDbSpline
 70
8
 71
3
 72
8
 73
4
 74
0
 40
0
 40
0
 40
0
 40
0
 40
1
 40
1
 40
1
 40
1
 10
-45.801901
 20
-5.201948
 30
0.0
 10
-46.838475
 20
-5.986639
 30
0.0
 10
-47.798651
 20
-6.628666
 30
0.0
 10
-47.935670
 20
-6.628666
 30
0.0
  0
SPLINE
  5
347
100
AcDbEntity
  8
0
 62
7
100
AcDbSpline
 70
8
 71
3
 72
8
 73
4
 74
0
 40
0
 40
0
 40
0
 40
0
 40
1
 40
1
 40
1
 40
1
 10
-47.935670
 20
-6.628666
 30
0.0
 10
-48.072661
 20
-6.628666
 30
0.0
 10
-48.148974
 20
-5.136416
 30
0.0
 10
-48.105229
 20
-3.312555
 30
0.0
  0
LWPOLYLINE
  5
348
100
AcDbEntity
  8
0
 62
7
100
AcDbPolyline
 90
3
 70
1
 10
-48.105229
 20
-3.312555
 30
0.0
 10
-48.025727
 20
0.003556
 30
0.0
 10
-45.909061
 20
1.042331
 30
0.0
  0
SPLINE
  5
349
100
AcDbEntity
  8
0
 62
7
100
AcDbSpline
 70
8
 71
3
 72
8
 73
4
 74
0
 40
0
 40
0
 40
0
 40
0
 40
1
 40
1
 40
1
 40
1
 10
490.866458
 20
-5.410482
 30
0.0
 10
485.715536
 20
-3.450054
 30
0.0
 10
480.435384
 20
1.295146
 30
0.0
 10
480.435384
 20
3.963839
 30
0.0
  0
SPLINE
  5
34a
100
AcDbEntity
  8
0
 62
7
100
AcDbSpline
 70
8
 71
3
 72
8
 73
4
 74
0
 40
0
 40
0
 40
0
 40
0
 40
1
 40
1
 40
1
 40
1
 10
480.435384
 20
3.963839
 30
0.0
 10
480.435384
 20
5.391912
 30
0.0
 10
481.429991
 20
5.583767
 30
0.0
 10
483.948486
 20
4.641455
 30
0.0
  0
SPLINE
  5
34b
100
AcDbEntity
  8
0
 62
7
100
AcDbSpline
 70
8
 71
3
 72
8
 73
4
 74
0
 40
0
 40
0
 40
0
 40
0
 40
1
 40
1
 40
1
 40
1
 10
483.948486
 20
4.641455
 30
0.0
 10
486.203526
 20
3.797752
 30
0.0
 10
488.517861
 20
2.154654
 30
0.0
 10
491.277543
 20
-0.561876
 30
0.0
  0
LWPOLYLINE
  5
34c
100
AcDbEntity
  8
0
 62
7
100
AcDbPolyline
 90
2
 70
1
 10
-48.105229
 20
-3.312555
 30
0.0
 10
-48.105229
 20
-3.312555
 30
0.0
  0
SPLINE
  5
34d
100
AcDbEntity
  8
0
 62
7
100
AcDbSpline
 70
8
 71
3
 72
8
 73
4
 74
0
 40
0
 40
0
 40
0
 40
0
 40
1
 40
1
 40
1
 40
1
 10
493.699828
 20
-4.646366
 30
0.0
 10
493.699828
 20
-5.581424
 30
0.0
 10
493.604578
 20
-6.342239
 30
0.0
 10
493.488162
 20
-6.337102
 30
0.0
  0
SPLINE
  5
34e
100
AcDbEntity
  8
0
 62
7
100
AcDbSpline
 70
8
 71
3
 72
8
 73
4
 74
0
 40
0
 40
0
 40
0
 40
0
 40
1
 40
1
 40
1
 40
1
 10
493.488162
 20
-6.337102
 30
0.0
 10
493.371745
 20
-6.332022
 30
0.0
 10
492.191971
 20
-5.914954
 30
0.0
 10
490.866458
 20
-5.410482
 30
0.0
  0
LWPOLYLINE
  5
34f
100
AcDbEntity
  8
0
 62
7
100
AcDbPolyline
 90
3
 70
1
 10
491.277543
 20
-0.561876
 30
0.0
 10
493.699828
 20
-2.946287
 30
0.0
 10
493.699828
 20
-4.646366
 30
0.0
  0
SPLINE
  5
350
100
AcDbEntity
  8
0
 62
7
100
AcDbSpline
 70
8
 71
3
 72
8
 73
4
 74
0
 40
0
 40
0
 40
0
 40
0
 40
1
 40
1
 40
1
 40
1
 10
121.222939
 20
-2.338888
 30
0.0
 10
120.777056
 20
-1.893006
 30
0.0
 10
120.789841
 20
-1.266444
 30
0.0
 10
121.244953
 20
-1.266444
 30
0.0
  0
SPLINE
  5
351
100
AcDbEntity
  8
0
 62
7
100
AcDbSpline
 70
8
 71
3
 72
8
 73
4
 74
0
 40
0
 40
0
 40
0
 40
0
 40
1
 40
1
 40
1
 40
1
 10
121.244953
 20
-1.266444
 30
0.0
 10
121.802454
 20
-1.266444
 30
0.0
 10
122.889095
 20
-2.119884
 30
0.0
 10
122.706920
 20
-2.414637
 30
0.0
  0
SPLINE
  5
352
100
AcDbEntity
  8
0
 62
7
100
AcDbSpline
 70
8
 71
3
 72
8
 73
4
 74
0
 40
0
 40
0
 40
0
 40
0
 40
1
 40
1
 40
1
 40
1
 10
122.706920
 20
-2.414637
 30
0.0
 10
122.478038
 20
-2.785025
 30
0.0
 10
121.625699
 20
-2.741507
 30
0.0
 10
121.223080
 20
-2.338888
 30
0.0
  0
LWPOLYLINE
  5
353
100
AcDbEntity
  8
0
 62
7
100
AcDbPolyline
 90
2
 70
1
 10
490.866458
 20
-5.410482
 30
0.0
 10
490.866458
 20
-5.410482
 30
0.0
  0
SPLINE
  5
354
100
AcDbEntity
  8
0
 62
7
100
AcDbSpline
 70
8
 71
3
 72
8
 73
4
 74
0
 40
0
 40
0
 40
0
 40
0
 40
1
 40
1
 40
1
 40
1
 10
313.077606
 20
-2.307223
 30
0.0
 10
313.077606
 20
-1.854962
 30
0.0
 10
314.677185
 20
-1.078625
 30
0.0
 10
314.981675
 20
-1.383115
 30
0.0
  0
SPLINE
  5
355
100
AcDbEntity
  8
0
 62
7
100
AcDbSpline
 70
8
 71
3
 72
8
 73
4
 74
0
 40
0
 40
0
 40
0
 40
0
 40
1
 40
1
 40
1
 40
1
 10
314.981675
 20
-1.383115
 30
0.0
 10
315.331884
 20
-1.733324
 30
0.0
 10
314.585943
 20
-2.534892
 30
0.0
 10
313.825241
 20
-2.625739
 30
0.0
  0
SPLINE
  5
356
100
AcDbEntity
  8
0
 62
7
100
AcDbSpline
 70
8
 71
3
 72
8
 73
4
 74
0
 40
0
 40
0
 40
0
 40
0
 40
1
 40
1
 40
1
 40
1
 10
313.825241
 20
-2.625739
 30
0.0
 10
313.320261
 20
-2.686078
 30
0.0
 10
313.077606
 20
-2.582700
 30
0.0
 10
313.077606
 20
-2.307223
 30
0.0
  0
LWPOLYLINE
  5
357
100
AcDbEntity
  8
0
 62
7
100
AcDbPolyline
 90
2
 70
1
 10
121.223080
 20
-2.338888
 30
0.0
 10
121.222939
 20
-2.338888
 30
0.0
  0
SPLINE
  5
358
100
AcDbEntity
  8
0
 62
7
100
AcDbSpline
 70
8
 71
3
 72
8
 73
4
 74
0
 40
0
 40
0
 40
0
 40
0
 40
1
 40
1
 40
1
 40
1
 10
117.850384
 20
-2.104334
 30
0.0
 10
117.501134
 20
-1.963928
 30
0.0
 10
117.215384
 20
-1.718000
 30
0.0
 10
117.215384
 20
-1.557754
 30
0.0
  0
SPLINE
  5
359
100
AcDbEntity
  8
0
 62
7
100
AcDbSpline
 70
8
 71
3
 72
8
 73
4
 74
0
 40
0
 40
0
 40
0
 40
0
 40
1
 40
1
 40
1
 40
1
 10
117.215384
 20
-1.557754
 30
0.0
 10
117.215384
 20
-1.155390
 30
0.0
 10
118.437886
 20
-1.190752
 30
0.0
 10
118.852273
 20
-1.605111
 30
0.0
  0
SPLINE
  5
35a
100
AcDbEntity
  8
0
 62
7
100
AcDbSpline
 70
8
 71
3
 72
8
 73
4
 74
0
 40
0
 40
0
 40
0
 40
0
 40
1
 40
1
 40
1
 40
1
 10
118.852273
 20
-1.605111
 30
0.0
 10
119.592626
 20
-2.345464
 30
0.0
 10
119.082566
 20
-2.599605
 30
0.0
 10
117.850384
 20
-2.104334
 30
0.0
  0
LWPOLYLINE
  5
35b
100
AcDbEntity
  8
0
 62
7
100
AcDbPolyline
 90
2
 70
1
 10
313.077606
 20
-2.307223
 30
0.0
 10
313.077606
 20
-2.307223
 30
0.0
  0
SPLINE
  5
35c
100
AcDbEntity
  8
0
 62
7
100
AcDbSpline
 70
8
 71
3
 72
8
 73
4
 74
0
 40
0
 40
0
 40
0
 40
0
 40
1
 40
1
 40
1
 40
1
 10
316.746495
 20
-1.830888
 30
0.0
 10
316.944304
 20
-1.461290
 30
0.0
 10
317.337412
 20
-1.266444
 30
0.0
 10
317.885318
 20
-1.266444
 30
0.0
  0
SPLINE
  5
35d
100
AcDbEntity
  8
0
 62
7
100
AcDbSpline
 70
8
 71
3
 72
8
 73
4
 74
0
 40
0
 40
0
 40
0
 40
0
 40
1
 40
1
 40
1
 40
1
 10
317.885318
 20
-1.266444
 30
0.0
 10
318.913679
 20
-1.266444
 30
0.0
 10
318.977292
 20
-1.747830
 30
0.0
 10
317.998122
 20
-2.120110
 30
0.0
  0
SPLINE
  5
35e
100
AcDbEntity
  8
0
 62
7
100
AcDbSpline
 70
8
 71
3
 72
8
 73
4
 74
0
 40
0
 40
0
 40
0
 40
0
 40
1
 40
1
 40
1
 40
1
 10
317.998122
 20
-2.120110
 30
0.0
 10
316.794219
 20
-2.577818
 30
0.0
 10
316.396003
 20
-2.485813
 30
0.0
 10
316.746495
 20
-1.830888
 30
0.0
  0
LWPOLYLINE
  5
35f
100
AcDbEntity
  8
0
 62
7
100
AcDbPolyline
 90
2
 70
1
 10
117.850384
 20
-2.104334
 30
0.0
 10
117.850384
 20
-2.104334
 30
0.0
  0
SPLINE
  5
360
100
AcDbEntity
  8
0
 62
7
100
AcDbSpline
 70
8
 71
3
 72
8
 73
4
 74
0
 40
0
 40
0
 40
0
 40
0
 40
1
 40
1
 40
1
 40
1
 10
111.630912
 20
1.544715
 30
0.0
 10
109.061702
 20
3.480675
 30
0.0
 10
105.117900
 20
7.522012
 30
0.0
 10
103.290737
 20
10.091166
 30
0.0
  0
SPLINE
  5
361
100
AcDbEntity
  8
0
 62
7
100
AcDbSpline
 70
8
 71
3
 72
8
 73
4
 74
0
 40
0
 40
0
 40
0
 40
0
 40
1
 40
1
 40
1
 40
1
 10
103.290737
 20
10.091166
 30
0.0
 10
100.598337
 20
13.876923
 30
0.0
 10
98.588717
 20
18.460889
 30
0.0
 10
98.588717
 20
20.816542
 30
0.0
  0
SPLINE
  5
362
100
AcDbEntity
  8
0
 62
7
100
AcDbSpline
 70
8
 71
3
 72
8
 73
4
 74
0
 40
0
 40
0
 40
0
 40
0
 40
1
 40
1
 40
1
 40
1
 10
98.588717
 20
20.816542
 30
0.0
 10
98.588717
 20
22.174228
 30
0.0
 10
99.406710
 20
23.945794
 30
0.0
 10
100.096715
 20
24.082417
 30
0.0
  0
SPLINE
  5
363
100
AcDbEntity
  8
0
 62
7
100
AcDbSpline
 70
8
 71
3
 72
8
 73
4
 74
0
 40
0
 40
0
 40
0
 40
0
 40
1
 40
1
 40
1
 40
1
 10
100.096715
 20
24.082417
 30
0.0
 10
100.346623
 20
24.131919
 30
0.0
 10
101.580357
 20
23.560419
 30
0.0
 10
102.838335
 20
22.812417
 30
0.0
  0
LWPOLYLINE
  5
364
100
AcDbEntity
  8
0
 62
7
100
AcDbPolyline
 90
2
 70
1
 10
316.746495
 20
-1.830888
 30
0.0
 10
316.746495
 20
-1.830888
 30
0.0
  0
SPLINE
  5
365
100
AcDbEntity
  8
0
 62
7
100
AcDbSpline
 70
8
 71
3
 72
8
 73
4
 74
0
 40
0
 40
0
 40
0
 40
0
 40
1
 40
1
 40
1
 40
1
 10
106.883087
 20
17.783556
 30
0.0
 10
109.147949
 20
13.055487
 30
0.0
 10
111.609773
 20
8.781909
 30
0.0
 10
114.585891
 20
4.411811
 30
0.0
  0
SPLINE
  5
366
100
AcDbEntity
  8
0
 62
7
100
AcDbSpline
 70
8
 71
3
 72
8
 73
4
 74
0
 40
0
 40
0
 40
0
 40
0
 40
1
 40
1
 40
1
 40
1
 10
114.585891
 20
4.411811
 30
0.0
 10
115.894584
 20
2.490131
 30
0.0
 10
116.905532
 20
0.761944
 30
0.0
 10
116.832408
 20
0.571387
 30
0.0
  0
SPLINE
  5
367
100
AcDbEntity
  8
0
 62
7
100
AcDbSpline
 70
8
 71
3
 72
8
 73
4
 74
0
 40
0
 40
0
 40
0
 40
0
 40
1
 40
1
 40
1
 40
1
 10
116.832408
 20
0.571387
 30
0.0
 10
116.703263
 20
0.234837
 30
0.0
 10
115.412576
 20
-0.137555
 30
0.0
 10
114.375240
 20
-0.137555
 30
0.0
  0
SPLINE
  5
368
100
AcDbEntity
  8
0
 62
7
100
AcDbSpline
 70
8
 71
3
 72
8
 73
4
 74
0
 40
0
 40
0
 40
0
 40
0
 40
1
 40
1
 40
1
 40
1
 10
114.375240
 20
-0.137555
 30
0.0
 10
114.093752
 20
-0.137555
 30
0.0
 10
112.858804
 20
0.619450
 30
0.0
 10
111.630912
 20
1.544715
 30
0.0
  0
LWPOLYLINE
  5
369
100
AcDbEntity
  8
0
 62
7
100
AcDbPolyline
 90
3
 70
1
 10
102.838335
 20
22.812417
 30
0.0
 10
105.125548
 20
21.452445
 30
0.0
 10
106.883087
 20
17.783556
 30
0.0
  0
SPLINE
  5
36a
100
AcDbEntity
  8
0
 62
7
100
AcDbSpline
 70
8
 71
3
 72
8
 73
4
 74
0
 40
0
 40
0
 40
0
 40
0
 40
1
 40
1
 40
1
 40
1
 10
319.852435
 20
0.114610
 30
0.0
 10
319.465170
 20
0.222363
 30
0.0
 10
319.113775
 20
0.495441
 30
0.0
 10
319.071554
 20
0.721473
 30
0.0
  0
SPLINE
  5
36b
100
AcDbEntity
  8
0
 62
7
100
AcDbSpline
 70
8
 71
3
 72
8
 73
4
 74
0
 40
0
 40
0
 40
0
 40
0
 40
1
 40
1
 40
1
 40
1
 10
319.071554
 20
0.721473
 30
0.0
 10
319.029306
 20
0.947505
 30
0.0
 10
319.669753
 20
2.084945
 30
0.0
 10
320.494801
 20
3.249112
 30
0.0
  0
SPLINE
  5
36c
100
AcDbEntity
  8
0
 62
7
100
AcDbSpline
 70
8
 71
3
 72
8
 73
4
 74
0
 40
0
 40
0
 40
0
 40
0
 40
1
 40
1
 40
1
 40
1
 10
320.494801
 20
3.249112
 30
0.0
 10
323.342254
 20
7.266996
 30
0.0
 10
325.554340
 20
11.028454
 30
0.0
 10
328.212591
 20
16.372445
 30
0.0
  0
LWPOLYLINE
  5
36d
100
AcDbEntity
  8
0
 62
7
100
AcDbPolyline
 90
2
 70
1
 10
111.630912
 20
1.544715
 30
0.0
 10
111.630912
 20
1.544715
 30
0.0
  0
SPLINE
  5
36e
100
AcDbEntity
  8
0
 62
7
100
AcDbSpline
 70
8
 71
3
 72
8
 73
4
 74
0
 40
0
 40
0
 40
0
 40
0
 40
1
 40
1
 40
1
 40
1
 10
333.174058
 20
22.934112
 30
0.0
 10
334.435845
 20
23.593806
 30
0.0
 10
335.634725
 20
24.133556
 30
0.0
 10
335.838264
 20
24.133556
 30
0.0
  0
SPLINE
  5
36f
100
AcDbEntity
  8
0
 62
7
100
AcDbSpline
 70
8
 71
3
 72
8
 73
4
 74
0
 40
0
 40
0
 40
0
 40
0
 40
1
 40
1
 40
1
 40
1
 10
335.838264
 20
24.133556
 30
0.0
 10
336.405022
 20
24.133556
 30
0.0
 10
337.348717
 20
22.035149
 30
0.0
 10
337.348717
 20
20.774942
 30
0.0
  0
SPLINE
  5
370
100
AcDbEntity
  8
0
 62
7
100
AcDbSpline
 70
8
 71
3
 72
8
 73
4
 74
0
 40
0
 40
0
 40
0
 40
0
 40
1
 40
1
 40
1
 40
1
 10
337.348717
 20
20.774942
 30
0.0
 10
337.348717
 20
17.020766
 30
0.0
 10
332.879023
 20
9.450804
 30
0.0
 10
327.793548
 20
4.592179
 30
0.0
  0
SPLINE
  5
371
100
AcDbEntity
  8
0
 62
7
100
AcDbSpline
 70
8
 71
3
 72
8
 73
4
 74
0
 40
0
 40
0
 40
0
 40
0
 40
1
 40
1
 40
1
 40
1
 10
327.793548
 20
4.592179
 30
0.0
 10
323.421982
 20
0.415600
 30
0.0
 10
321.885056
 20
-0.450963
 30
0.0
 10
319.852435
 20
0.114610
 30
0.0
  0
LWPOLYLINE
  5
372
100
AcDbEntity
  8
0
 62
7
100
AcDbPolyline
 90
3
 70
1
 10
328.212591
 20
16.372445
 30
0.0
 10
330.879902
 20
21.734667
 30
0.0
 10
333.174058
 20
22.934112
 30
0.0
  0
SPLINE
  5
373
100
AcDbEntity
  8
0
 62
7
100
AcDbSpline
 70
8
 71
3
 72
8
 73
4
 74
0
 40
0
 40
0
 40
0
 40
0
 40
1
 40
1
 40
1
 40
1
 10
16.541863
 20
20.772938
 30
0.0
 10
11.397517
 20
21.083919
 30
0.0
 10
5.000724
 20
21.944161
 30
0.0
 10
-3.081358
 20
23.411829
 30
0.0
  0
SPLINE
  5
374
100
AcDbEntity
  8
0
 62
7
100
AcDbSpline
 70
8
 71
3
 72
8
 73
4
 74
0
 40
0
 40
0
 40
0
 40
0
 40
1
 40
1
 40
1
 40
1
 10
-3.081358
 20
23.411829
 30
0.0
 10
-16.900087
 20
25.921264
 30
0.0
 10
-20.008934
 20
26.216328
 30
0.0
 10
-30.616285
 20
26.025263
 30
0.0
  0
SPLINE
  5
375
100
AcDbEntity
  8
0
 62
7
100
AcDbSpline
 70
8
 71
3
 72
8
 73
4
 74
0
 40
0
 40
0
 40
0
 40
0
 40
1
 40
1
 40
1
 40
1
 10
-30.616285
 20
26.025263
 30
0.0
 10
-39.011916
 20
25.874049
 30
0.0
 10
-44.028416
 20
25.350555
 30
0.0
 10
-47.672950
 20
24.245288
 30
0.0
  0
SPLINE
  5
376
100
AcDbEntity
  8
0
 62
7
100
AcDbSpline
 70
8
 71
3
 72
8
 73
4
 74
0
 40
0
 40
0
 40
0
 40
0
 40
1
 40
1
 40
1
 40
1
 10
-47.672950
 20
24.245288
 30
0.0
 10
-48.142737
 20
24.102822
 30
0.0
 10
-48.166838
 20
29.415034
 30
0.0
 10
-48.166838
 20
133.052323
 30
0.0
  0
LWPOLYLINE
  5
377
100
AcDbEntity
  8
0
 62
7
100
AcDbPolyline
 90
2
 70
1
 10
319.852435
 20
0.114610
 30
0.0
 10
319.852435
 20
0.114610
 30
0.0
  0
SPLINE
  5
378
100
AcDbEntity
  8
0
 62
7
100
AcDbSpline
 70
8
 71
3
 72
8
 73
4
 74
0
 40
0
 40
0
 40
0
 40
0
 40
1
 40
1
 40
1
 40
1
 10
493.699828
 20
133.635787
 30
0.0
 10
493.699828
 20
74.030453
 30
0.0
 10
493.651850
 20
25.262445
 30
0.0
 10
493.593176
 20
25.262445
 30
0.0
  0
SPLINE
  5
379
100
AcDbEntity
  8
0
 62
7
100
AcDbSpline
 70
8
 71
3
 72
8
 73
4
 74
0
 40
0
 40
0
 40
0
 40
0
 40
1
 40
1
 40
1
 40
1
 10
493.593176
 20
25.262445
 30
0.0
 10
493.534531
 20
25.262445
 30
0.0
 10
493.050378
 20
25.444676
 30
0.0
 10
492.517289
 20
25.667406
 30
0.0
  0
SPLINE
  5
37a
100
AcDbEntity
  8
0
 62
7
100
AcDbSpline
 70
8
 71
3
 72
8
 73
4
 74
0
 40
0
 40
0
 40
0
 40
0
 40
1
 40
1
 40
1
 40
1
 10
492.517289
 20
25.667406
 30
0.0
 10
489.625809
 20
26.875542
 30
0.0
 10
482.993982
 20
28.193774
 30
0.0
 10
476.791726
 20
28.793214
 30
0.0
  0
SPLINE
  5
37b
100
AcDbEntity
  8
0
 62
7
100
AcDbSpline
 70
8
 71
3
 72
8
 73
4
 74
0
 40
0
 40
0
 40
0
 40
0
 40
1
 40
1
 40
1
 40
1
 10
476.791726
 20
28.793214
 30
0.0
 10
466.547793
 20
29.783261
 30
0.0
 10
458.306593
 20
29.222954
 30
0.0
 10
443.435542
 20
26.525361
 30
0.0
  0
SPLINE
  5
37c
100
AcDbEntity
  8
0
 62
7
100
AcDbSpline
 70
8
 71
3
 72
8
 73
4
 74
0
 40
0
 40
0
 40
0
 40
0
 40
1
 40
1
 40
1
 40
1
 10
443.435542
 20
26.525361
 30
0.0
 10
429.867822
 20
24.064214
 30
0.0
 10
423.950328
 20
23.472930
 30
0.0
 10
414.553964
 20
23.639470
 30
0.0
  0
SPLINE
  5
37d
100
AcDbEntity
  8
0
 62
7
100
AcDbSpline
 70
8
 71
3
 72
8
 73
4
 74
0
 40
0
 40
0
 40
0
 40
0
 40
1
 40
1
 40
1
 40
1
 10
414.553964
 20
23.639470
 30
0.0
 10
406.867953
 20
23.775698
 30
0.0
 10
404.107960
 20
24.163472
 30
0.0
 10
396.064994
 20
26.237184
 30
0.0
  0
SPLINE
  5
37e
100
AcDbEntity
  8
0
 62
7
100
AcDbSpline
 70
8
 71
3
 72
8
 73
4
 74
0
 40
0
 40
0
 40
0
 40
0
 40
1
 40
1
 40
1
 40
1
 10
396.064994
 20
26.237184
 30
0.0
 10
393.496094
 20
26.899503
 30
0.0
 10
387.901773
 20
28.339373
 30
0.0
 10
383.633162
 20
29.436878
 30
0.0
  0
SPLINE
  5
37f
100
AcDbEntity
  8
0
 62
7
100
AcDbSpline
 70
8
 71
3
 72
8
 73
4
 74
0
 40
0
 40
0
 40
0
 40
0
 40
1
 40
1
 40
1
 40
1
 10
383.633162
 20
29.436878
 30
0.0
 10
374.901714
 20
31.681826
 30
0.0
 10
369.095895
 20
32.728476
 30
0.0
 10
362.896094
 20
33.175234
 30
0.0
  0
SPLINE
  5
380
100
AcDbEntity
  8
0
 62
7
100
AcDbSpline
 70
8
 71
3
 72
8
 73
4
 74
0
 40
0
 40
0
 40
0
 40
0
 40
1
 40
1
 40
1
 40
1
 10
362.896094
 20
33.175234
 30
0.0
 10
356.362367
 20
33.646037
 30
0.0
 10
349.106095
 20
32.842578
 30
0.0
 10
343.910384
 20
31.072960
 30
0.0
  0
SPLINE
  5
381
100
AcDbEntity
  8
0
 62
7
100
AcDbSpline
 70
8
 71
3
 72
8
 73
4
 74
0
 40
0
 40
0
 40
0
 40
0
 40
1
 40
1
 40
1
 40
1
 10
343.910384
 20
31.072960
 30
0.0
 10
341.529980
 20
30.262220
 30
0.0
 10
341.425191
 20
30.403557
 30
0.0
 10
342.844459
 20
32.511052
 30
0.0
  0
SPLINE
  5
382
100
AcDbEntity
  8
0
 62
7
100
AcDbSpline
 70
8
 71
3
 72
8
 73
4
 74
0
 40
0
 40
0
 40
0
 40
0
 40
1
 40
1
 40
1
 40
1
 10
342.844459
 20
32.511052
 30
0.0
 10
344.165513
 20
34.472694
 30
0.0
 10
345.918056
 20
37.997847
 30
0.0
 10
346.636961
 20
40.139518
 30
0.0
  0
SPLINE
  5
383
100
AcDbEntity
  8
0
 62
7
100
AcDbSpline
 70
8
 71
3
 72
8
 73
4
 74
0
 40
0
 40
0
 40
0
 40
0
 40
1
 40
1
 40
1
 40
1
 10
346.636961
 20
40.139518
 30
0.0
 10
348.493108
 20
45.669070
 30
0.0
 10
347.722162
 20
50.851122
 30
0.0
 10
344.530482
 20
54.298494
 30
0.0
  0
SPLINE
  5
384
100
AcDbEntity
  8
0
 62
7
100
AcDbSpline
 70
8
 71
3
 72
8
 73
4
 74
0
 40
0
 40
0
 40
0
 40
0
 40
1
 40
1
 40
1
 40
1
 10
344.530482
 20
54.298494
 30
0.0
 10
342.401144
 20
56.598436
 30
0.0
 10
340.445062
 20
57.442845
 30
0.0
 10
336.778515
 20
57.644888
 30
0.0
  0
LWPOLYLINE
  5
385
100
AcDbEntity
  8
0
 62
7
100
AcDbPolyline
 90
5
 70
1
 10
-48.166838
 20
133.052323
 30
0.0
 10
-48.166838
 20
242.009120
 30
0.0
 10
222.766501
 20
242.009120
 30
0.0
 10
493.699828
 20
242.009120
 30
0.0
 10
493.699828
 20
133.635787
 30
0.0
  0
SPLINE
  5
386
100
AcDbEntity
  8
0
 62
7
100
AcDbSpline
 70
8
 71
3
 72
8
 73
4
 74
0
 40
0
 40
0
 40
0
 40
0
 40
1
 40
1
 40
1
 40
1
 10
333.102373
 20
59.191409
 30
0.0
 10
332.003908
 20
60.886634
 30
0.0
 10
330.064928
 20
62.367058
 30
0.0
 10
328.195827
 20
62.937599
 30
0.0
  0
SPLINE
  5
387
100
AcDbEntity
  8
0
 62
7
100
AcDbSpline
 70
8
 71
3
 72
8
 73
4
 74
0
 40
0
 40
0
 40
0
 40
0
 40
1
 40
1
 40
1
 40
1
 10
328.195827
 20
62.937599
 30
0.0
 10
322.688656
 20
64.618684
 30
0.0
 10
317.743445
 20
60.573508
 30
0.0
 10
316.882582
 20
53.683363
 30
0.0
  0
SPLINE
  5
388
100
AcDbEntity
  8
0
 62
7
100
AcDbSpline
 70
8
 71
3
 72
8
 73
4
 74
0
 40
0
 40
0
 40
0
 40
0
 40
1
 40
1
 40
1
 40
1
 10
316.882582
 20
53.683363
 30
0.0
 10
316.639335
 20
51.736340
 30
0.0
 10
316.542251
 20
51.668635
 30
0.0
 10
313.155951
 20
51.084266
 30
0.0
  0
SPLINE
  5
389
100
AcDbEntity
  8
0
 62
7
100
AcDbSpline
 70
8
 71
3
 72
8
 73
4
 74
0
 40
0
 40
0
 40
0
 40
0
 40
1
 40
1
 40
1
 40
1
 10
313.155951
 20
51.084266
 30
0.0
 10
307.447386
 20
50.099141
 30
0.0
 10
302.721320
 20
51.988421
 30
0.0
 10
300.681136
 20
56.071189
 30
0.0
  0
SPLINE
  5
38a
100
AcDbEntity
  8
0
 62
7
100
AcDbSpline
 70
8
 71
3
 72
8
 73
4
 74
0
 40
0
 40
0
 40
0
 40
0
 40
1
 40
1
 40
1
 40
1
 10
300.681136
 20
56.071189
 30
0.0
 10
300.203757
 20
57.026511
 30
0.0
 10
299.813162
 20
58.149755
 30
0.0
 10
299.813162
 20
58.567218
 30
0.0
  0
LWPOLYLINE
  5
38b
100
AcDbEntity
  8
0
 62
7
100
AcDbPolyline
 90
3
 70
1
 10
336.778515
 20
57.644888
 30
0.0
 10
334.005484
 20
57.797683
 30
0.0
 10
333.102373
 20
59.191409
 30
0.0
  0
SPLINE
  5
38c
100
AcDbEntity
  8
0
 62
7
100
AcDbSpline
 70
8
 71
3
 72
8
 73
4
 74
0
 40
0
 40
0
 40
0
 40
0
 40
1
 40
1
 40
1
 40
1
 10
302.705939
 20
59.496576
 30
0.0
 10
307.938170
 20
59.804565
 30
0.0
 10
311.747352
 20
61.174585
 30
0.0
 10
313.917556
 20
63.528967
 30
0.0
  0
SPLINE
  5
38d
100
AcDbEntity
  8
0
 62
7
100
AcDbSpline
 70
8
 71
3
 72
8
 73
4
 74
0
 40
0
 40
0
 40
0
 40
0
 40
1
 40
1
 40
1
 40
1
 10
313.917556
 20
63.528967
 30
0.0
 10
316.692873
 20
66.539827
 30
0.0
 10
315.134046
 20
69.791868
 30
0.0
 10
310.678717
 20
70.286025
 30
0.0
  0
SPLINE
  5
38e
100
AcDbEntity
  8
0
 62
7
100
AcDbSpline
 70
8
 71
3
 72
8
 73
4
 74
0
 40
0
 40
0
 40
0
 40
0
 40
1
 40
1
 40
1
 40
1
 10
310.678717
 20
70.286025
 30
0.0
 10
306.390350
 20
70.761660
 30
0.0
 10
301.656778
 20
68.660978
 30
0.0
 10
299.493291
 20
65.322123
 30
0.0
  0
SPLINE
  5
38f
100
AcDbEntity
  8
0
 62
7
100
AcDbSpline
 70
8
 71
3
 72
8
 73
4
 74
0
 40
0
 40
0
 40
0
 40
0
 40
1
 40
1
 40
1
 40
1
 10
299.493291
 20
65.322123
 30
0.0
 10
298.738911
 20
64.157928
 30
0.0
 10
298.448194
 20
63.926901
 30
0.0
 10
297.737558
 20
63.926901
 30
0.0
  0
SPLINE
  5
390
100
AcDbEntity
  8
0
 62
7
100
AcDbSpline
 70
8
 71
3
 72
8
 73
4
 74
0
 40
0
 40
0
 40
0
 40
0
 40
1
 40
1
 40
1
 40
1
 10
297.737558
 20
63.926901
 30
0.0
 10
295.525190
 20
63.926901
 30
0.0
 10
290.564344
 20
65.704929
 30
0.0
 10
288.603210
 20
67.200735
 30
0.0
  0
SPLINE
  5
391
100
AcDbEntity
  8
0
 62
7
100
AcDbSpline
 70
8
 71
3
 72
8
 73
4
 74
0
 40
0
 40
0
 40
0
 40
0
 40
1
 40
1
 40
1
 40
1
 10
288.603210
 20
67.200735
 30
0.0
 10
288.081918
 20
67.598358
 30
0.0
 10
287.319522
 20
68.431212
 30
0.0
 10
286.909002
 20
69.051534
 30
0.0
  0
SPLINE
  5
392
100
AcDbEntity
  8
0
 62
7
100
AcDbSpline
 70
8
 71
3
 72
8
 73
4
 74
0
 40
0
 40
0
 40
0
 40
0
 40
1
 40
1
 40
1
 40
1
 10
286.909002
 20
69.051534
 30
0.0
 10
286.075318
 20
70.311326
 30
0.0
 10
286.270813
 20
70.687757
 30
0.0
 10
287.763006
 20
70.695910
 30
0.0
  0
SPLINE
  5
393
100
AcDbEntity
  8
0
 62
7
100
AcDbSpline
 70
8
 71
3
 72
8
 73
4
 74
0
 40
0
 40
0
 40
0
 40
0
 40
1
 40
1
 40
1
 40
1
 10
287.763006
 20
70.695910
 30
0.0
 10
289.267702
 20
70.704123
 30
0.0
 10
292.342344
 20
71.563828
 30
0.0
 10
293.757406
 20
72.372000
 30
0.0
  0
SPLINE
  5
394
100
AcDbEntity
  8
0
 62
7
100
AcDbSpline
 70
8
 71
3
 72
8
 73
4
 74
0
 40
0
 40
0
 40
0
 40
0
 40
1
 40
1
 40
1
 40
1
 10
293.757406
 20
72.372000
 30
0.0
 10
297.130865
 20
74.298669
 30
0.0
 10
296.731238
 20
77.434677
 30
0.0
 10
292.998116
 20
78.330239
 30
0.0
  0
SPLINE
  5
395
100
AcDbEntity
  8
0
 62
7
100
AcDbSpline
 70
8
 71
3
 72
8
 73
4
 74
0
 40
0
 40
0
 40
0
 40
0
 40
1
 40
1
 40
1
 40
1
 10
292.998116
 20
78.330239
 30
0.0
 10
289.965412
 20
79.057771
 30
0.0
 10
286.512367
 20
77.796170
 30
0.0
 10
285.036034
 20
75.421213
 30
0.0
  0
LWPOLYLINE
  5
396
100
AcDbEntity
  8
0
 62
7
100
AcDbPolyline
 90
3
 70
1
 10
299.813162
 20
58.567218
 30
0.0
 10
299.813162
 20
59.326283
 30
0.0
 10
302.705939
 20
59.496576
 30
0.0
  0
SPLINE
  5
397
100
AcDbEntity
  8
0
 62
7
100
AcDbSpline
 70
8
 71
3
 72
8
 73
4
 74
0
 40
0
 40
0
 40
0
 40
0
 40
1
 40
1
 40
1
 40
1
 10
281.331868
 20
74.183387
 30
0.0
 10
277.197707
 20
74.437929
 30
0.0
 10
272.431002
 20
75.793479
 30
0.0
 10
272.325282
 20
76.744666
 30
0.0
  0
SPLINE
  5
398
100
AcDbEntity
  8
0
 62
7
100
AcDbSpline
 70
8
 71
3
 72
8
 73
4
 74
0
 40
0
 40
0
 40
0
 40
0
 40
1
 40
1
 40
1
 40
1
 10
272.325282
 20
76.744666
 30
0.0
 10
272.309477
 20
76.887050
 30
0.0
 10
273.169211
 20
77.286553
 30
0.0
 10
274.235870
 20
77.632450
 30
0.0
  0
SPLINE
  5
399
100
AcDbEntity
  8
0
 62
7
100
AcDbSpline
 70
8
 71
3
 72
8
 73
4
 74
0
 40
0
 40
0
 40
0
 40
0
 40
1
 40
1
 40
1
 40
1
 10
274.235870
 20
77.632450
 30
0.0
 10
275.302528
 20
77.978347
 30
0.0
 10
276.509028
 20
78.509190
 30
0.0
 10
276.916981
 20
78.812102
 30
0.0
  0
SPLINE
  5
39a
100
AcDbEntity
  8
0
 62
7
100
AcDbSpline
 70
8
 71
3
 72
8
 73
4
 74
0
 40
0
 40
0
 40
0
 40
0
 40
1
 40
1
 40
1
 40
1
 10
276.916981
 20
78.812102
 30
0.0
 10
279.558524
 20
80.773484
 30
0.0
 10
278.273058
 20
83.396768
 30
0.0
 10
274.669222
 20
83.399176
 30
0.0
  0
SPLINE
  5
39b
100
AcDbEntity
  8
0
 62
7
100
AcDbSpline
 70
8
 71
3
 72
8
 73
4
 74
0
 40
0
 40
0
 40
0
 40
0
 40
1
 40
1
 40
1
 40
1
 10
274.669222
 20
83.399176
 30
0.0
 10
272.635754
 20
83.400587
 30
0.0
 10
270.882420
 20
82.502637
 30
0.0
 10
269.808396
 20
80.909936
 30
0.0
  0
SPLINE
  5
39c
100
AcDbEntity
  8
0
 62
7
100
AcDbSpline
 70
8
 71
3
 72
8
 73
4
 74
0
 40
0
 40
0
 40
0
 40
0
 40
1
 40
1
 40
1
 40
1
 10
269.808396
 20
80.909936
 30
0.0
 10
269.115681
 20
79.882675
 30
0.0
 10
268.880138
 20
79.731599
 30
0.0
 10
267.973951
 20
79.733338
 30
0.0
  0
SPLINE
  5
39d
100
AcDbEntity
  8
0
 62
7
100
AcDbSpline
 70
8
 71
3
 72
8
 73
4
 74
0
 40
0
 40
0
 40
0
 40
0
 40
1
 40
1
 40
1
 40
1
 10
267.973951
 20
79.733338
 30
0.0
 10
265.664442
 20
79.737768
 30
0.0
 10
261.621326
 20
80.601608
 30
0.0
 10
257.479828
 20
81.975477
 30
0.0
  0
SPLINE
  5
39e
100
AcDbEntity
  8
0
 62
7
100
AcDbSpline
 70
8
 71
3
 72
8
 73
4
 74
0
 40
0
 40
0
 40
0
 40
0
 40
1
 40
1
 40
1
 40
1
 10
257.479828
 20
81.975477
 30
0.0
 10
246.881678
 20
85.491216
 30
0.0
 10
235.995774
 20
87.480227
 30
0.0
 10
223.330945
 20
88.214973
 30
0.0
  0
SPLINE
  5
39f
100
AcDbEntity
  8
0
 62
7
100
AcDbSpline
 70
8
 71
3
 72
8
 73
4
 74
0
 40
0
 40
0
 40
0
 40
0
 40
1
 40
1
 40
1
 40
1
 10
223.330945
 20
88.214973
 30
0.0
 10
217.971263
 20
88.525912
 30
0.0
 10
216.143408
 20
88.486767
 30
0.0
 10
207.949834
 20
87.885580
 30
0.0
  0
SPLINE
  5
3a0
100
AcDbEntity
  8
0
 62
7
100
AcDbSpline
 70
8
 71
3
 72
8
 73
4
 74
0
 40
0
 40
0
 40
0
 40
0
 40
1
 40
1
 40
1
 40
1
 10
207.949834
 20
87.885580
 30
0.0
 10
197.685635
 20
87.132462
 30
0.0
 10
188.350590
 20
85.260157
 30
0.0
 10
177.893167
 20
81.857195
 30
0.0
  0
SPLINE
  5
3a1
100
AcDbEntity
  8
0
 62
7
100
AcDbSpline
 70
8
 71
3
 72
8
 73
4
 74
0
 40
0
 40
0
 40
0
 40
0
 40
1
 40
1
 40
1
 40
1
 10
177.893167
 20
81.857195
 30
0.0
 10
173.573217
 20
80.451435
 30
0.0
 10
170.178913
 20
79.731342
 30
0.0
 10
167.872512
 20
79.731342
 30
0.0
  0
SPLINE
  5
3a2
100
AcDbEntity
  8
0
 62
7
100
AcDbSpline
 70
8
 71
3
 72
8
 73
4
 74
0
 40
0
 40
0
 40
0
 40
0
 40
1
 40
1
 40
1
 40
1
 10
167.872512
 20
79.731342
 30
0.0
 10
167.074046
 20
79.731342
 30
0.0
 10
166.797948
 20
79.917984
 30
0.0
 10
166.129044
 20
80.909936
 30
0.0
  0
SPLINE
  5
3a3
100
AcDbEntity
  8
0
 62
7
100
AcDbSpline
 70
8
 71
3
 72
8
 73
4
 74
0
 40
0
 40
0
 40
0
 40
0
 40
1
 40
1
 40
1
 40
1
 10
166.129044
 20
80.909936
 30
0.0
 10
165.049237
 20
82.511228
 30
0.0
 10
163.303701
 20
83.400231
 30
0.0
 10
161.239398
 20
83.400231
 30
0.0
  0
SPLINE
  5
3a4
100
AcDbEntity
  8
0
 62
7
100
AcDbSpline
 70
8
 71
3
 72
8
 73
4
 74
0
 40
0
 40
0
 40
0
 40
0
 40
1
 40
1
 40
1
 40
1
 10
161.239398
 20
83.400231
 30
0.0
 10
157.424120
 20
83.400231
 30
0.0
 10
156.248777
 20
80.269131
 30
0.0
 10
159.407606
 20
78.520363
 30
0.0
  0
SPLINE
  5
3a5
100
AcDbEntity
  8
0
 62
7
100
AcDbSpline
 70
8
 71
3
 72
8
 73
4
 74
0
 40
0
 40
0
 40
0
 40
0
 40
1
 40
1
 40
1
 40
1
 10
159.407606
 20
78.520363
 30
0.0
 10
159.718050
 20
78.348496
 30
0.0
 10
160.775057
 20
77.944198
 30
0.0
 10
161.756513
 20
77.621923
 30
0.0
  0
SPLINE
  5
3a6
100
AcDbEntity
  8
0
 62
7
100
AcDbSpline
 70
8
 71
3
 72
8
 73
4
 74
0
 40
0
 40
0
 40
0
 40
0
 40
1
 40
1
 40
1
 40
1
 10
161.756513
 20
77.621923
 30
0.0
 10
162.737964
 20
77.299645
 30
0.0
 10
163.551977
 20
76.912176
 30
0.0
 10
163.565434
 20
76.760877
 30
0.0
  0
SPLINE
  5
3a7
100
AcDbEntity
  8
0
 62
7
100
AcDbSpline
 70
8
 71
3
 72
8
 73
4
 74
0
 40
0
 40
0
 40
0
 40
0
 40
1
 40
1
 40
1
 40
1
 10
163.565434
 20
76.760877
 30
0.0
 10
163.643307
 20
75.885302
 30
0.0
 10
158.636010
 20
74.448772
 30
0.0
 10
154.605595
 20
74.190417
 30
0.0
  0
LWPOLYLINE
  5
3a8
100
AcDbEntity
  8
0
 62
7
100
AcDbPolyline
 90
3
 70
1
 10
285.036034
 20
75.421213
 30
0.0
 10
284.158380
 20
74.009360
 30
0.0
 10
281.331868
 20
74.183387
 30
0.0
  0
SPLINE
  5
3a9
100
AcDbEntity
  8
0
 62
7
100
AcDbSpline
 70
8
 71
3
 72
8
 73
4
 74
0
 40
0
 40
0
 40
0
 40
0
 40
1
 40
1
 40
1
 40
1
 10
150.901456
 20
75.421154
 30
0.0
 10
149.353214
 20
77.911754
 30
0.0
 10
145.698464
 20
79.128555
 30
0.0
 10
142.531366
 20
78.207862
 30
0.0
  0
SPLINE
  5
3aa
100
AcDbEntity
  8
0
 62
7
100
AcDbSpline
 70
8
 71
3
 72
8
 73
4
 74
0
 40
0
 40
0
 40
0
 40
0
 40
1
 40
1
 40
1
 40
1
 10
142.531366
 20
78.207862
 30
0.0
 10
138.351627
 20
76.992774
 30
0.0
 10
139.116703
 20
73.110829
 30
0.0
 10
143.841668
 20
71.559485
 30
0.0
  0
SPLINE
  5
3ab
100
AcDbEntity
  8
0
 62
7
100
AcDbSpline
 70
8
 71
3
 72
8
 73
4
 74
0
 40
0
 40
0
 40
0
 40
0
 40
1
 40
1
 40
1
 40
1
 10
143.841668
 20
71.559485
 30
0.0
 10
144.438511
 20
71.363524
 30
0.0
 10
145.899011
 20
71.053379
 30
0.0
 10
147.087223
 20
70.870270
 30
0.0
  0
SPLINE
  5
3ac
100
AcDbEntity
  8
0
 62
7
100
AcDbSpline
 70
8
 71
3
 72
8
 73
4
 74
0
 40
0
 40
0
 40
0
 40
0
 40
1
 40
1
 40
1
 40
1
 10
147.087223
 20
70.870270
 30
0.0
 10
149.842333
 20
70.445695
 30
0.0
 10
150.040622
 20
69.926166
 30
0.0
 10
148.163816
 20
68.049349
 30
0.0
  0
SPLINE
  5
3ad
100
AcDbEntity
  8
0
 62
7
100
AcDbSpline
 70
8
 71
3
 72
8
 73
4
 74
0
 40
0
 40
0
 40
0
 40
0
 40
1
 40
1
 40
1
 40
1
 10
148.163816
 20
68.049349
 30
0.0
 10
146.221986
 20
66.107547
 30
0.0
 10
142.388138
 20
64.434957
 30
0.0
 10
139.000456
 20
64.051671
 30
0.0
  0
LWPOLYLINE
  5
3ae
100
AcDbEntity
  8
0
 62
7
100
AcDbPolyline
 90
3
 70
1
 10
154.605595
 20
74.190417
 30
0.0
 10
151.779139
 20
74.009236
 30
0.0
 10
150.901456
 20
75.421154
 30
0.0
  0
SPLINE
  5
3af
100
AcDbEntity
  8
0
 62
7
100
AcDbSpline
 70
8
 71
3
 72
8
 73
4
 74
0
 40
0
 40
0
 40
0
 40
0
 40
1
 40
1
 40
1
 40
1
 10
136.462911
 20
65.293167
 30
0.0
 10
135.362329
 20
66.991636
 30
0.0
 10
133.910155
 20
68.195286
 30
0.0
 10
131.790948
 20
69.165490
 30
0.0
  0
SPLINE
  5
3b0
100
AcDbEntity
  8
0
 62
7
100
AcDbSpline
 70
8
 71
3
 72
8
 73
4
 74
0
 40
0
 40
0
 40
0
 40
0
 40
1
 40
1
 40
1
 40
1
 10
131.790948
 20
69.165490
 30
0.0
 10
127.640193
 20
71.065768
 30
0.0
 10
122.271423
 20
70.569785
 30
0.0
 10
121.031198
 20
68.171466
 30
0.0
  0
SPLINE
  5
3b1
100
AcDbEntity
  8
0
 62
7
100
AcDbSpline
 70
8
 71
3
 72
8
 73
4
 74
0
 40
0
 40
0
 40
0
 40
0
 40
1
 40
1
 40
1
 40
1
 10
121.031198
 20
68.171466
 30
0.0
 10
119.551224
 20
65.309536
 30
0.0
 10
122.171008
 20
62.050659
 30
0.0
 10
127.234273
 20
60.455172
 30
0.0
  0
SPLINE
  5
3b2
100
AcDbEntity
  8
0
 62
7
100
AcDbSpline
 70
8
 71
3
 72
8
 73
4
 74
0
 40
0
 40
0
 40
0
 40
0
 40
1
 40
1
 40
1
 40
1
 10
127.234273
 20
60.455172
 30
0.0
 10
129.084663
 20
59.872101
 30
0.0
 10
132.269936
 20
59.411345
 30
0.0
 10
134.450526
 20
59.411345
 30
0.0
  0
LWPOLYLINE
  5
3b3
100
AcDbEntity
  8
0
 62
7
100
AcDbPolyline
 90
3
 70
1
 10
139.000456
 20
64.051671
 30
0.0
 10
137.385750
 20
63.868989
 30
0.0
 10
136.462911
 20
65.293167
 30
0.0
  0
SPLINE
  5
3b4
100
AcDbEntity
  8
0
 62
7
100
AcDbSpline
 70
8
 71
3
 72
8
 73
4
 74
0
 40
0
 40
0
 40
0
 40
0
 40
1
 40
1
 40
1
 40
1
 10
136.011751
 20
58.256548
 30
0.0
 10
135.176740
 20
53.034619
 30
0.0
 10
129.450902
 20
49.933307
 30
0.0
 10
122.772650
 20
51.085790
 30
0.0
  0
SPLINE
  5
3b5
100
AcDbEntity
  8
0
 62
7
100
AcDbSpline
 70
8
 71
3
 72
8
 73
4
 74
0
 40
0
 40
0
 40
0
 40
0
 40
1
 40
1
 40
1
 40
1
 10
122.772650
 20
51.085790
 30
0.0
 10
121.383806
 20
51.325453
 30
0.0
 10
120.047117
 20
51.633696
 30
0.0
 10
119.802233
 20
51.770743
 30
0.0
  0
SPLINE
  5
3b6
100
AcDbEntity
  8
0
 62
7
100
AcDbSpline
 70
8
 71
3
 72
8
 73
4
 74
0
 40
0
 40
0
 40
0
 40
0
 40
1
 40
1
 40
1
 40
1
 10
119.802233
 20
51.770743
 30
0.0
 10
119.532795
 20
51.921506
 30
0.0
 10
119.160826
 20
52.931608
 30
0.0
 10
118.860344
 20
54.328466
 30
0.0
  0
SPLINE
  5
3b7
100
AcDbEntity
  8
0
 62
7
100
AcDbSpline
 70
8
 71
3
 72
8
 73
4
 74
0
 40
0
 40
0
 40
0
 40
0
 40
1
 40
1
 40
1
 40
1
 10
118.860344
 20
54.328466
 30
0.0
 10
117.951702
 20
58.552204
 30
0.0
 10
116.284502
 20
61.188611
 30
0.0
 10
113.708632
 20
62.475065
 30
0.0
  0
SPLINE
  5
3b8
100
AcDbEntity
  8
0
 62
7
100
AcDbSpline
 70
8
 71
3
 72
8
 73
4
 74
0
 40
0
 40
0
 40
0
 40
0
 40
1
 40
1
 40
1
 40
1
 10
113.708632
 20
62.475065
 30
0.0
 10
109.982141
 20
64.336151
 30
0.0
 10
105.630331
 20
63.071654
 30
0.0
 10
102.861110
 20
59.323122
 30
0.0
  0
LWPOLYLINE
  5
3b9
100
AcDbEntity
  8
0
 62
7
100
AcDbPolyline
 90
3
 70
1
 10
134.450526
 20
59.411345
 30
0.0
 10
136.196409
 20
59.411345
 30
0.0
 10
136.011751
 20
58.256548
 30
0.0
  0
SPLINE
  5
3ba
100
AcDbEntity
  8
0
 62
7
100
AcDbSpline
 70
8
 71
3
 72
8
 73
4
 74
0
 40
0
 40
0
 40
0
 40
0
 40
1
 40
1
 40
1
 40
1
 10
99.059379
 20
57.643816
 30
0.0
 10
93.841062
 20
57.332468
 30
0.0
 10
90.620850
 20
54.966204
 30
0.0
 10
88.982465
 20
50.239123
 30
0.0
  0
SPLINE
  5
3bb
100
AcDbEntity
  8
0
 62
7
100
AcDbSpline
 70
8
 71
3
 72
8
 73
4
 74
0
 40
0
 40
0
 40
0
 40
0
 40
1
 40
1
 40
1
 40
1
 10
88.982465
 20
50.239123
 30
0.0
 10
88.280071
 20
48.212485
 30
0.0
 10
88.146975
 20
44.507133
 30
0.0
 10
88.693583
 20
42.195790
 30
0.0
  0
SPLINE
  5
3bc
100
AcDbEntity
  8
0
 62
7
100
AcDbSpline
 70
8
 71
3
 72
8
 73
4
 74
0
 40
0
 40
0
 40
0
 40
0
 40
1
 40
1
 40
1
 40
1
 10
88.693583
 20
42.195790
 30
0.0
 10
89.513297
 20
38.729706
 30
0.0
 10
91.803107
 20
34.121073
 30
0.0
 10
94.560785
 20
30.387132
 30
0.0
  0
SPLINE
  5
3bd
100
AcDbEntity
  8
0
 62
7
100
AcDbSpline
 70
8
 71
3
 72
8
 73
4
 74
0
 40
0
 40
0
 40
0
 40
0
 40
1
 40
1
 40
1
 40
1
 10
94.560785
 20
30.387132
 30
0.0
 10
95.402400
 20
29.247507
 30
0.0
 10
96.034916
 20
28.259024
 30
0.0
 10
95.966336
 20
28.190444
 30
0.0
  0
SPLINE
  5
3be
100
AcDbEntity
  8
0
 62
7
100
AcDbSpline
 70
8
 71
3
 72
8
 73
4
 74
0
 40
0
 40
0
 40
0
 40
0
 40
1
 40
1
 40
1
 40
1
 10
95.966336
 20
28.190444
 30
0.0
 10
95.897785
 20
28.121864
 30
0.0
 10
94.903996
 20
28.321818
 30
0.0
 10
93.757976
 20
28.634746
 30
0.0
  0
SPLINE
  5
3bf
100
AcDbEntity
  8
0
 62
7
100
AcDbSpline
 70
8
 71
3
 72
8
 73
4
 74
0
 40
0
 40
0
 40
0
 40
0
 40
1
 40
1
 40
1
 40
1
 10
93.757976
 20
28.634746
 30
0.0
 10
88.843612
 20
29.976724
 30
0.0
 10
87.138820
 20
30.173320
 30
0.0
 10
80.385384
 20
30.176848
 30
0.0
  0
SPLINE
  5
3c0
100
AcDbEntity
  8
0
 62
7
100
AcDbSpline
 70
8
 71
3
 72
8
 73
4
 74
0
 40
0
 40
0
 40
0
 40
0
 40
1
 40
1
 40
1
 40
1
 10
80.385384
 20
30.176848
 30
0.0
 10
70.292186
 20
30.182210
 30
0.0
 10
68.351372
 20
29.827852
 30
0.0
 10
45.107606
 20
23.736667
 30
0.0
  0
SPLINE
  5
3c1
100
AcDbEntity
  8
0
 62
7
100
AcDbSpline
 70
8
 71
3
 72
8
 73
4
 74
0
 40
0
 40
0
 40
0
 40
0
 40
1
 40
1
 40
1
 40
1
 10
45.107606
 20
23.736667
 30
0.0
 10
33.444011
 20
20.680144
 30
0.0
 10
27.786500
 20
20.093178
 30
0.0
 10
16.541863
 20
20.772938
 30
0.0
  0
LWPOLYLINE
  5
3c2
100
AcDbEntity
  8
0
 62
7
100
AcDbPolyline
 90
3
 70
1
 10
102.861110
 20
59.323122
 30
0.0
 10
101.738628
 20
57.803638
 30
0.0
 10
99.059379
 20
57.643816
 30
0.0
  0
SPLINE
  5
3c3
100
AcDbEntity
  8
0
 62
7
100
AcDbSpline
 70
8
 71
3
 72
8
 73
4
 74
0
 40
0
 40
0
 40
0
 40
0
 40
1
 40
1
 40
1
 40
1
 10
394.634184
 20
63.925828
 30
0.0
 10
397.946541
 20
64.553998
 30
0.0
 10
401.510190
 20
66.775878
 30
0.0
 10
404.039239
 20
69.789751
 30
0.0
  0
SPLINE
  5
3c4
100
AcDbEntity
  8
0
 62
7
100
AcDbSpline
 70
8
 71
3
 72
8
 73
4
 74
0
 40
0
 40
0
 40
0
 40
0
 40
1
 40
1
 40
1
 40
1
 10
404.039239
 20
69.789751
 30
0.0
 10
405.739092
 20
71.815460
 30
0.0
 10
407.964781
 20
76.288384
 30
0.0
 10
408.878730
 20
79.515555
 30
0.0
  0
SPLINE
  5
3c5
100
AcDbEntity
  8
0
 62
7
100
AcDbSpline
 70
8
 71
3
 72
8
 73
4
 74
0
 40
0
 40
0
 40
0
 40
0
 40
1
 40
1
 40
1
 40
1
 10
408.878730
 20
79.515555
 30
0.0
 10
410.274968
 20
84.445678
 30
0.0
 10
410.538112
 20
87.731806
 30
0.0
 10
410.274629
 20
96.946898
 30
0.0
  0
SPLINE
  5
3c6
100
AcDbEntity
  8
0
 62
7
100
AcDbSpline
 70
8
 71
3
 72
8
 73
4
 74
0
 40
0
 40
0
 40
0
 40
0
 40
1
 40
1
 40
1
 40
1
 10
410.274629
 20
96.946898
 30
0.0
 10
409.817203
 20
112.944029
 30
0.0
 10
410.013545
 20
115.652096
 30
0.0
 10
411.865600
 20
118.889312
 30
0.0
  0
SPLINE
  5
3c7
100
AcDbEntity
  8
0
 62
7
100
AcDbSpline
 70
8
 71
3
 72
8
 73
4
 74
0
 40
0
 40
0
 40
0
 40
0
 40
1
 40
1
 40
1
 40
1
 10
411.865600
 20
118.889312
 30
0.0
 10
413.290258
 20
121.379511
 30
0.0
 10
415.848348
 20
122.560345
 30
0.0
 10
418.163276
 20
121.796353
 30
0.0
  0
SPLINE
  5
3c8
100
AcDbEntity
  8
0
 62
7
100
AcDbSpline
 70
8
 71
3
 72
8
 73
4
 74
0
 40
0
 40
0
 40
0
 40
0
 40
1
 40
1
 40
1
 40
1
 10
418.163276
 20
121.796353
 30
0.0
 10
419.510097
 20
121.351858
 30
0.0
 10
421.560865
 20
119.030146
 30
0.0
 10
422.262074
 20
117.156001
 30
0.0
  0
SPLINE
  5
3c9
100
AcDbEntity
  8
0
 62
7
100
AcDbSpline
 70
8
 71
3
 72
8
 73
4
 74
0
 40
0
 40
0
 40
0
 40
0
 40
1
 40
1
 40
1
 40
1
 10
422.262074
 20
117.156001
 30
0.0
 10
423.618067
 20
113.531737
 30
0.0
 10
423.661981
 20
111.016446
 30
0.0
 10
422.436600
 20
107.157667
 30
0.0
  0
SPLINE
  5
3ca
100
AcDbEntity
  8
0
 62
7
100
AcDbSpline
 70
8
 71
3
 72
8
 73
4
 74
0
 40
0
 40
0
 40
0
 40
0
 40
1
 40
1
 40
1
 40
1
 10
422.436600
 20
107.157667
 30
0.0
 10
421.747244
 20
104.986943
 30
0.0
 10
421.843087
 20
104.127972
 30
0.0
 10
422.736349
 20
104.470748
 30
0.0
  0
SPLINE
  5
3cb
100
AcDbEntity
  8
0
 62
7
100
AcDbSpline
 70
8
 71
3
 72
8
 73
4
 74
0
 40
0
 40
0
 40
0
 40
0
 40
1
 40
1
 40
1
 40
1
 10
422.736349
 20
104.470748
 30
0.0
 10
423.129315
 20
104.621547
 30
0.0
 10
429.791594
 20
113.424194
 30
0.0
 10
430.449708
 20
114.662176
 30
0.0
  0
SPLINE
  5
3cc
100
AcDbEntity
  8
0
 62
7
100
AcDbSpline
 70
8
 71
3
 72
8
 73
4
 74
0
 40
0
 40
0
 40
0
 40
0
 40
1
 40
1
 40
1
 40
1
 10
430.449708
 20
114.662176
 30
0.0
 10
430.884894
 20
115.480829
 30
0.0
 10
430.646417
 20
115.855513
 30
0.0
 10
429.689288
 20
115.856842
 30
0.0
  0
SPLINE
  5
3cd
100
AcDbEntity
  8
0
 62
7
100
AcDbSpline
 70
8
 71
3
 72
8
 73
4
 74
0
 40
0
 40
0
 40
0
 40
0
 40
1
 40
1
 40
1
 40
1
 10
429.689288
 20
115.856842
 30
0.0
 10
428.331602
 20
115.858818
 30
0.0
 10
427.176918
 20
116.893761
 30
0.0
 10
424.851632
 20
120.193246
 30
0.0
  0
SPLINE
  5
3ce
100
AcDbEntity
  8
0
 62
7
100
AcDbSpline
 70
8
 71
3
 72
8
 73
4
 74
0
 40
0
 40
0
 40
0
 40
0
 40
1
 40
1
 40
1
 40
1
 10
424.851632
 20
120.193246
 30
0.0
 10
421.111482
 20
125.500367
 30
0.0
 10
418.586412
 20
127.330177
 30
0.0
 10
414.604228
 20
127.619100
 30
0.0
  0
SPLINE
  5
3cf
100
AcDbEntity
  8
0
 62
7
100
AcDbSpline
 70
8
 71
3
 72
8
 73
4
 74
0
 40
0
 40
0
 40
0
 40
0
 40
1
 40
1
 40
1
 40
1
 10
414.604228
 20
127.619100
 30
0.0
 10
409.767193
 20
127.970043
 30
0.0
 10
403.434691
 20
125.048247
 30
0.0
 10
400.924409
 20
121.307259
 30
0.0
  0
SPLINE
  5
3d0
100
AcDbEntity
  8
0
 62
7
100
AcDbSpline
 70
8
 71
3
 72
8
 73
4
 74
0
 40
0
 40
0
 40
0
 40
0
 40
1
 40
1
 40
1
 40
1
 10
400.924409
 20
121.307259
 30
0.0
 10
399.731879
 20
119.530052
 30
0.0
 10
398.461992
 20
116.003897
 30
0.0
 10
397.772269
 20
112.554433
 30
0.0
  0
SPLINE
  5
3d1
100
AcDbEntity
  8
0
 62
7
100
AcDbSpline
 70
8
 71
3
 72
8
 73
4
 74
0
 40
0
 40
0
 40
0
 40
0
 40
1
 40
1
 40
1
 40
1
 10
397.772269
 20
112.554433
 30
0.0
 10
396.732393
 20
107.353975
 30
0.0
 10
396.518045
 20
102.946364
 30
0.0
 10
396.724971
 20
91.020231
 30
0.0
  0
SPLINE
  5
3d2
100
AcDbEntity
  8
0
 62
7
100
AcDbSpline
 70
8
 71
3
 72
8
 73
4
 74
0
 40
0
 40
0
 40
0
 40
0
 40
1
 40
1
 40
1
 40
1
 10
396.724971
 20
91.020231
 30
0.0
 10
396.946995
 20
78.224202
 30
0.0
 10
396.809496
 20
76.461521
 30
0.0
 10
395.407247
 20
74.125819
 30
0.0
  0
SPLINE
  5
3d3
100
AcDbEntity
  8
0
 62
7
100
AcDbSpline
 70
8
 71
3
 72
8
 73
4
 74
0
 40
0
 40
0
 40
0
 40
0
 40
1
 40
1
 40
1
 40
1
 10
395.407247
 20
74.125819
 30
0.0
 10
394.246890
 20
72.193048
 30
0.0
 10
392.340423
 20
70.504550
 30
0.0
 10
390.872105
 20
70.109170
 30
0.0
  0
SPLINE
  5
3d4
100
AcDbEntity
  8
0
 62
7
100
AcDbSpline
 70
8
 71
3
 72
8
 73
4
 74
0
 40
0
 40
0
 40
0
 40
0
 40
1
 40
1
 40
1
 40
1
 10
390.872105
 20
70.109170
 30
0.0
 10
389.336986
 20
69.695811
 30
0.0
 10
387.934031
 20
70.128051
 30
0.0
 10
385.735661
 20
71.691613
 30
0.0
  0
SPLINE
  5
3d5
100
AcDbEntity
  8
0
 62
7
100
AcDbSpline
 70
8
 71
3
 72
8
 73
4
 74
0
 40
0
 40
0
 40
0
 40
0
 40
1
 40
1
 40
1
 40
1
 10
385.735661
 20
71.691613
 30
0.0
 10
382.828066
 20
73.759616
 30
0.0
 10
381.552365
 20
76.129552
 30
0.0
 10
381.555046
 20
79.458304
 30
0.0
  0
SPLINE
  5
3d6
100
AcDbEntity
  8
0
 62
7
100
AcDbSpline
 70
8
 71
3
 72
8
 73
4
 74
0
 40
0
 40
0
 40
0
 40
0
 40
1
 40
1
 40
1
 40
1
 10
381.555046
 20
79.458304
 30
0.0
 10
381.557869
 20
81.265406
 30
0.0
 10
381.696553
 20
81.887514
 30
0.0
 10
382.489287
 20
83.607368
 30
0.0
  0
SPLINE
  5
3d7
100
AcDbEntity
  8
0
 62
7
100
AcDbSpline
 70
8
 71
3
 72
8
 73
4
 74
0
 40
0
 40
0
 40
0
 40
0
 40
1
 40
1
 40
1
 40
1
 10
382.489287
 20
83.607368
 30
0.0
 10
383.459934
 20
85.713161
 30
0.0
 10
383.471956
 20
86.504676
 30
0.0
 10
382.533398
 20
86.504676
 30
0.0
  0
SPLINE
  5
3d8
100
AcDbEntity
  8
0
 62
7
100
AcDbSpline
 70
8
 71
3
 72
8
 73
4
 74
0
 40
0
 40
0
 40
0
 40
0
 40
1
 40
1
 40
1
 40
1
 10
382.533398
 20
86.504676
 30
0.0
 10
381.897495
 20
86.504676
 30
0.0
 10
373.395550
 20
75.889931
 30
0.0
 10
373.237788
 20
74.899083
 30
0.0
  0
SPLINE
  5
3d9
100
AcDbEntity
  8
0
 62
7
100
AcDbSpline
 70
8
 71
3
 72
8
 73
4
 74
0
 40
0
 40
0
 40
0
 40
0
 40
1
 40
1
 40
1
 40
1
 10
373.237788
 20
74.899083
 30
0.0
 10
373.147223
 20
74.330058
 30
0.0
 10
373.220008
 20
74.314756
 30
0.0
 10
375.113352
 20
74.504894
 30
0.0
  0
SPLINE
  5
3da
100
AcDbEntity
  8
0
 62
7
100
AcDbSpline
 70
8
 71
3
 72
8
 73
4
 74
0
 40
0
 40
0
 40
0
 40
0
 40
1
 40
1
 40
1
 40
1
 10
375.113352
 20
74.504894
 30
0.0
 10
376.354876
 20
74.629574
 30
0.0
 10
377.291600
 20
74.591170
 30
0.0
 10
377.646890
 20
74.401014
 30
0.0
  0
SPLINE
  5
3db
100
AcDbEntity
  8
0
 62
7
100
AcDbSpline
 70
8
 71
3
 72
8
 73
4
 74
0
 40
0
 40
0
 40
0
 40
0
 40
1
 40
1
 40
1
 40
1
 10
377.646890
 20
74.401014
 30
0.0
 10
377.956939
 20
74.235079
 30
0.0
 10
378.921631
 20
73.030732
 30
0.0
 10
379.790650
 20
71.724689
 30
0.0
  0
SPLINE
  5
3dc
100
AcDbEntity
  8
0
 62
7
100
AcDbSpline
 70
8
 71
3
 72
8
 73
4
 74
0
 40
0
 40
0
 40
0
 40
0
 40
1
 40
1
 40
1
 40
1
 10
379.790650
 20
71.724689
 30
0.0
 10
382.390001
 20
67.818124
 30
0.0
 10
385.867120
 20
65.120052
 30
0.0
 10
389.536912
 20
64.162076
 30
0.0
  0
SPLINE
  5
3dd
100
AcDbEntity
  8
0
 62
7
100
AcDbSpline
 70
8
 71
3
 72
8
 73
4
 74
0
 40
0
 40
0
 40
0
 40
0
 40
1
 40
1
 40
1
 40
1
 10
389.536912
 20
64.162076
 30
0.0
 10
391.728988
 20
63.589843
 30
0.0
 10
392.639889
 20
63.547622
 30
0.0
 10
394.634184
 20
63.925828
 30
0.0
  0
LWPOLYLINE
  5
3de
100
AcDbEntity
  8
0
 62
7
100
AcDbPolyline
 90
2
 70
1
 10
16.541863
 20
20.772938
 30
0.0
 10
16.541863
 20
20.772938
 30
0.0
  0
SPLINE
  5
3df
100
AcDbEntity
  8
0
 62
7
100
AcDbSpline
 70
8
 71
3
 72
8
 73
4
 74
0
 40
0
 40
0
 40
0
 40
0
 40
1
 40
1
 40
1
 40
1
 10
52.358996
 20
65.236863
 30
0.0
 10
57.621226
 20
67.102014
 30
0.0
 10
62.934540
 20
71.529871
 30
0.0
 10
65.222064
 20
75.956301
 30
0.0
  0
SPLINE
  5
3e0
100
AcDbEntity
  8
0
 62
7
100
AcDbSpline
 70
8
 71
3
 72
8
 73
4
 74
0
 40
0
 40
0
 40
0
 40
0
 40
1
 40
1
 40
1
 40
1
 10
65.222064
 20
75.956301
 30
0.0
 10
68.697066
 20
82.680553
 30
0.0
 10
68.208313
 20
91.154975
 30
0.0
 10
63.843831
 20
99.854323
 30
0.0
  0
SPLINE
  5
3e1
100
AcDbEntity
  8
0
 62
7
100
AcDbSpline
 70
8
 71
3
 72
8
 73
4
 74
0
 40
0
 40
0
 40
0
 40
0
 40
1
 40
1
 40
1
 40
1
 10
63.843831
 20
99.854323
 30
0.0
 10
63.236235
 20
101.065353
 30
0.0
 10
58.781555
 20
108.367853
 30
0.0
 10
53.944548
 20
116.082101
 30
0.0
  0
SPLINE
  5
3e2
100
AcDbEntity
  8
0
 62
7
100
AcDbSpline
 70
8
 71
3
 72
8
 73
4
 74
0
 40
0
 40
0
 40
0
 40
0
 40
1
 40
1
 40
1
 40
1
 10
53.944548
 20
116.082101
 30
0.0
 10
49.107513
 20
123.796352
 30
0.0
 10
42.247114
 20
134.742341
 30
0.0
 10
38.699186
 20
140.406524
 30
0.0
  0
SPLINE
  5
3e3
100
AcDbEntity
  8
0
 62
7
100
AcDbSpline
 70
8
 71
3
 72
8
 73
4
 74
0
 40
0
 40
0
 40
0
 40
0
 40
1
 40
1
 40
1
 40
1
 10
38.699186
 20
140.406524
 30
0.0
 10
35.151258
 20
146.070704
 30
0.0
 10
32.109212
 20
151.169706
 30
0.0
 10
31.939061
 20
151.737633
 30
0.0
  0
SPLINE
  5
3e4
100
AcDbEntity
  8
0
 62
7
100
AcDbSpline
 70
8
 71
3
 72
8
 73
4
 74
0
 40
0
 40
0
 40
0
 40
0
 40
1
 40
1
 40
1
 40
1
 10
31.939061
 20
151.737633
 30
0.0
 10
31.695108
 20
152.551836
 30
0.0
 10
31.720480
 20
153.036719
 30
0.0
 10
32.059005
 20
154.030214
 30
0.0
  0
SPLINE
  5
3e5
100
AcDbEntity
  8
0
 62
7
100
AcDbSpline
 70
8
 71
3
 72
8
 73
4
 74
0
 40
0
 40
0
 40
0
 40
0
 40
1
 40
1
 40
1
 40
1
 10
32.059005
 20
154.030214
 30
0.0
 10
32.522329
 20
155.389981
 30
0.0
 10
32.323842
 20
156.122043
 30
0.0
 10
31.570309
 20
155.832875
 30
0.0
  0
SPLINE
  5
3e6
100
AcDbEntity
  8
0
 62
7
100
AcDbSpline
 70
8
 71
3
 72
8
 73
4
 74
0
 40
0
 40
0
 40
0
 40
0
 40
1
 40
1
 40
1
 40
1
 10
31.570309
 20
155.832875
 30
0.0
 10
31.311286
 20
155.733482
 30
0.0
 10
27.488473
 20
153.214253
 30
0.0
 10
23.075139
 20
150.234591
 30
0.0
  0
SPLINE
  5
3e7
100
AcDbEntity
  8
0
 62
7
100
AcDbSpline
 70
8
 71
3
 72
8
 73
4
 74
0
 40
0
 40
0
 40
0
 40
0
 40
1
 40
1
 40
1
 40
1
 10
23.075139
 20
150.234591
 30
0.0
 10
15.393134
 20
145.048057
 30
0.0
 10
14.294782
 20
144.114757
 30
0.0
 10
15.403718
 20
143.715954
 30
0.0
  0
SPLINE
  5
3e8
100
AcDbEntity
  8
0
 62
7
100
AcDbSpline
 70
8
 71
3
 72
8
 73
4
 74
0
 40
0
 40
0
 40
0
 40
0
 40
1
 40
1
 40
1
 40
1
 10
15.403718
 20
143.715954
 30
0.0
 10
15.597745
 20
143.646178
 30
0.0
 10
16.163149
 20
143.651224
 30
0.0
 10
16.660199
 20
143.727159
 30
0.0
  0
SPLINE
  5
3e9
100
AcDbEntity
  8
0
 62
7
100
AcDbSpline
 70
8
 71
3
 72
8
 73
4
 74
0
 40
0
 40
0
 40
0
 40
0
 40
1
 40
1
 40
1
 40
1
 10
16.660199
 20
143.727159
 30
0.0
 10
17.753754
 20
143.894251
 30
0.0
 10
19.682884
 20
142.856952
 30
0.0
 10
20.602279
 20
141.607498
 30
0.0
  0
SPLINE
  5
3ea
100
AcDbEntity
  8
0
 62
7
100
AcDbSpline
 70
8
 71
3
 72
8
 73
4
 74
0
 40
0
 40
0
 40
0
 40
0
 40
1
 40
1
 40
1
 40
1
 10
20.602279
 20
141.607498
 30
0.0
 10
21.191051
 20
140.807353
 30
0.0
 10
24.932302
 20
134.907889
 30
0.0
 10
44.360677
 20
104.143553
 30
0.0
  0
SPLINE
  5
3eb
100
AcDbEntity
  8
0
 62
7
100
AcDbSpline
 70
8
 71
3
 72
8
 73
4
 74
0
 40
0
 40
0
 40
0
 40
0
 40
1
 40
1
 40
1
 40
1
 10
44.360677
 20
104.143553
 30
0.0
 10
49.262002
 20
96.382442
 30
0.0
 10
53.932836
 20
88.762442
 30
0.0
 10
54.740302
 20
87.210220
 30
0.0
  0
SPLINE
  5
3ec
100
AcDbEntity
  8
0
 62
7
100
AcDbSpline
 70
8
 71
3
 72
8
 73
4
 74
0
 40
0
 40
0
 40
0
 40
0
 40
1
 40
1
 40
1
 40
1
 10
54.740302
 20
87.210220
 30
0.0
 10
59.141924
 20
78.748862
 30
0.0
 10
58.357601
 20
73.278611
 30
0.0
 10
52.338139
 20
70.456146
 30
0.0
  0
SPLINE
  5
3ed
100
AcDbEntity
  8
0
 62
7
100
AcDbSpline
 70
8
 71
3
 72
8
 73
4
 74
0
 40
0
 40
0
 40
0
 40
0
 40
1
 40
1
 40
1
 40
1
 10
52.338139
 20
70.456146
 30
0.0
 10
50.991431
 20
69.824687
 30
0.0
 10
50.368680
 20
69.712673
 30
0.0
 10
48.212050
 20
69.713983
 30
0.0
  0
SPLINE
  5
3ee
100
AcDbEntity
  8
0
 62
7
100
AcDbSpline
 70
8
 71
3
 72
8
 73
4
 74
0
 40
0
 40
0
 40
0
 40
0
 40
1
 40
1
 40
1
 40
1
 10
48.212050
 20
69.713983
 30
0.0
 10
45.953934
 20
69.715394
 30
0.0
 10
45.486010
 20
69.809315
 30
0.0
 10
43.995594
 20
70.560650
 30
0.0
  0
SPLINE
  5
3ef
100
AcDbEntity
  8
0
 62
7
100
AcDbSpline
 70
8
 71
3
 72
8
 73
4
 74
0
 40
0
 40
0
 40
0
 40
0
 40
1
 40
1
 40
1
 40
1
 10
43.995594
 20
70.560650
 30
0.0
 10
39.430706
 20
72.861876
 30
0.0
 10
36.150465
 20
78.334816
 30
0.0
 10
36.136947
 20
83.672457
 30
0.0
  0
SPLINE
  5
3f0
100
AcDbEntity
  8
0
 62
7
100
AcDbSpline
 70
8
 71
3
 72
8
 73
4
 74
0
 40
0
 40
0
 40
0
 40
0
 40
1
 40
1
 40
1
 40
1
 10
36.136947
 20
83.672457
 30
0.0
 10
36.128480
 20
87.025864
 30
0.0
 10
37.420465
 20
89.303290
 30
0.0
 10
39.675929
 20
89.910624
 30
0.0
  0
SPLINE
  5
3f1
100
AcDbEntity
  8
0
 62
7
100
AcDbSpline
 70
8
 71
3
 72
8
 73
4
 74
0
 40
0
 40
0
 40
0
 40
0
 40
1
 40
1
 40
1
 40
1
 10
39.675929
 20
89.910624
 30
0.0
 10
40.273393
 20
90.071504
 30
0.0
 10
40.833350
 20
90.388451
 30
0.0
 10
40.920247
 20
90.614949
 30
0.0
  0
SPLINE
  5
3f2
100
AcDbEntity
  8
0
 62
7
100
AcDbSpline
 70
8
 71
3
 72
8
 73
4
 74
0
 40
0
 40
0
 40
0
 40
0
 40
1
 40
1
 40
1
 40
1
 10
40.920247
 20
90.614949
 30
0.0
 10
41.187257
 20
91.310720
 30
0.0
 10
39.913080
 20
93.985230
 30
0.0
 10
38.812357
 20
95.039488
 30
0.0
  0
SPLINE
  5
3f3
100
AcDbEntity
  8
0
 62
7
100
AcDbSpline
 70
8
 71
3
 72
8
 73
4
 74
0
 40
0
 40
0
 40
0
 40
0
 40
1
 40
1
 40
1
 40
1
 10
38.812357
 20
95.039488
 30
0.0
 10
37.182411
 20
96.600642
 30
0.0
 10
36.048442
 20
97.073074
 30
0.0
 10
33.959828
 20
97.061139
 30
0.0
  0
SPLINE
  5
3f4
100
AcDbEntity
  8
0
 62
7
100
AcDbSpline
 70
8
 71
3
 72
8
 73
4
 74
0
 40
0
 40
0
 40
0
 40
0
 40
1
 40
1
 40
1
 40
1
 10
33.959828
 20
97.061139
 30
0.0
 10
32.565538
 20
97.053180
 30
0.0
 10
31.699341
 20
96.858404
 30
0.0
 10
30.349783
 20
96.249419
 30
0.0
  0
SPLINE
  5
3f5
100
AcDbEntity
  8
0
 62
7
100
AcDbSpline
 70
8
 71
3
 72
8
 73
4
 74
0
 40
0
 40
0
 40
0
 40
0
 40
1
 40
1
 40
1
 40
1
 10
30.349783
 20
96.249419
 30
0.0
 10
24.775443
 20
93.734001
 30
0.0
 10
22.768956
 20
86.525588
 30
0.0
 10
25.365061
 20
78.341313
 30
0.0
  0
SPLINE
  5
3f6
100
AcDbEntity
  8
0
 62
7
100
AcDbSpline
 70
8
 71
3
 72
8
 73
4
 74
0
 40
0
 40
0
 40
0
 40
0
 40
1
 40
1
 40
1
 40
1
 10
25.365061
 20
78.341313
 30
0.0
 10
27.111537
 20
72.835462
 30
0.0
 10
31.879822
 20
67.772545
 30
0.0
 10
37.346495
 20
65.619557
 30
0.0
  0
SPLINE
  5
3f7
100
AcDbEntity
  8
0
 62
7
100
AcDbSpline
 70
8
 71
3
 72
8
 73
4
 74
0
 40
0
 40
0
 40
0
 40
0
 40
1
 40
1
 40
1
 40
1
 10
37.346495
 20
65.619557
 30
0.0
 10
40.479303
 20
64.385738
 30
0.0
 10
41.550844
 20
64.217985
 30
0.0
 10
45.813162
 20
64.294100
 30
0.0
  0
SPLINE
  5
3f8
100
AcDbEntity
  8
0
 62
7
100
AcDbSpline
 70
8
 71
3
 72
8
 73
4
 74
0
 40
0
 40
0
 40
0
 40
0
 40
1
 40
1
 40
1
 40
1
 10
45.813162
 20
64.294100
 30
0.0
 10
49.563387
 20
64.361071
 30
0.0
 10
50.110446
 20
64.439840
 30
0.0
 10
52.358996
 20
65.236835
 30
0.0
  0
LWPOLYLINE
  5
3f9
100
AcDbEntity
  8
0
 62
7
100
AcDbPolyline
 90
2
 70
1
 10
394.634184
 20
63.925828
 30
0.0
 10
394.634184
 20
63.925828
 30
0.0
  0
SPLINE
  5
3fa
100
AcDbEntity
  8
0
 62
7
100
AcDbSpline
 70
8
 71
3
 72
8
 73
4
 74
0
 40
0
 40
0
 40
0
 40
0
 40
1
 40
1
 40
1
 40
1
 10
375.806801
 20
81.165742
 30
0.0
 10
381.235486
 20
86.355388
 30
0.0
 10
381.264499
 20
86.964983
 30
0.0
 10
376.009352
 20
85.425006
 30
0.0
  0
SPLINE
  5
3fb
100
AcDbEntity
  8
0
 62
7
100
AcDbSpline
 70
8
 71
3
 72
8
 73
4
 74
0
 40
0
 40
0
 40
0
 40
0
 40
1
 40
1
 40
1
 40
1
 10
376.009352
 20
85.425006
 30
0.0
 10
372.490577
 20
84.393857
 30
0.0
 10
369.387967
 20
83.896367
 30
0.0
 10
368.058051
 20
84.150050
 30
0.0
  0
SPLINE
  5
3fc
100
AcDbEntity
  8
0
 62
7
100
AcDbSpline
 70
8
 71
3
 72
8
 73
4
 74
0
 40
0
 40
0
 40
0
 40
0
 40
1
 40
1
 40
1
 40
1
 10
368.058051
 20
84.150050
 30
0.0
 10
366.699687
 20
84.409153
 30
0.0
 10
365.072930
 20
85.288758
 30
0.0
 10
364.714931
 20
85.957706
 30
0.0
  0
SPLINE
  5
3fd
100
AcDbEntity
  8
0
 62
7
100
AcDbSpline
 70
8
 71
3
 72
8
 73
4
 74
0
 40
0
 40
0
 40
0
 40
0
 40
1
 40
1
 40
1
 40
1
 10
364.714931
 20
85.957706
 30
0.0
 10
364.070872
 20
87.161108
 30
0.0
 10
363.042369
 20
85.251123
 30
0.0
 10
383.702504
 20
121.218009
 30
0.0
  0
SPLINE
  5
3fe
100
AcDbEntity
  8
0
 62
7
100
AcDbSpline
 70
8
 71
3
 72
8
 73
4
 74
0
 40
0
 40
0
 40
0
 40
0
 40
1
 40
1
 40
1
 40
1
 10
383.702504
 20
121.218009
 30
0.0
 10
387.581084
 20
127.970176
 30
0.0
 10
391.205635
 20
134.050244
 30
0.0
 10
391.757069
 20
134.729276
 30
0.0
  0
SPLINE
  5
3ff
100
AcDbEntity
  8
0
 62
7
100
AcDbSpline
 70
8
 71
3
 72
8
 73
4
 74
0
 40
0
 40
0
 40
0
 40
0
 40
1
 40
1
 40
1
 40
1
 10
391.757069
 20
134.729276
 30
0.0
 10
392.849100
 20
136.074000
 30
0.0
 10
394.557052
 20
137.006502
 30
0.0
 10
395.945840
 20
137.016256
 30
0.0
  0
SPLINE
  5
400
100
AcDbEntity
  8
0
 62
7
100
AcDbSpline
 70
8
 71
3
 72
8
 73
4
 74
0
 40
0
 40
0
 40
0
 40
0
 40
1
 40
1
 40
1
 40
1
 10
395.945840
 20
137.016256
 30
0.0
 10
397.011850
 20
137.023735
 30
0.0
 10
397.621788
 20
137.633826
 30
0.0
 10
397.241889
 20
138.312641
 30
0.0
  0
SPLINE
  5
401
100
AcDbEntity
  8
0
 62
7
100
AcDbSpline
 70
8
 71
3
 72
8
 73
4
 74
0
 40
0
 40
0
 40
0
 40
0
 40
1
 40
1
 40
1
 40
1
 10
397.241889
 20
138.312641
 30
0.0
 10
396.877596
 20
138.963575
 30
0.0
 10
380.825304
 20
148.019197
 30
0.0
 10
380.025966
 20
148.024692
 30
0.0
  0
SPLINE
  5
402
100
AcDbEntity
  8
0
 62
7
100
AcDbSpline
 70
8
 71
3
 72
8
 73
4
 74
0
 40
0
 40
0
 40
0
 40
0
 40
1
 40
1
 40
1
 40
1
 10
380.025966
 20
148.024692
 30
0.0
 10
379.085263
 20
148.031155
 30
0.0
 10
378.952478
 20
147.290846
 30
0.0
 10
379.640366
 20
145.874954
 30
0.0
  0
SPLINE
  5
403
100
AcDbEntity
  8
0
 62
7
100
AcDbSpline
 70
8
 71
3
 72
8
 73
4
 74
0
 40
0
 40
0
 40
0
 40
0
 40
1
 40
1
 40
1
 40
1
 10
379.640366
 20
145.874954
 30
0.0
 10
380.383542
 20
144.345242
 30
0.0
 10
380.402338
 20
143.365307
 30
0.0
 10
379.722719
 20
141.576735
 30
0.0
  0
SPLINE
  5
404
100
AcDbEntity
  8
0
 62
7
100
AcDbSpline
 70
8
 71
3
 72
8
 73
4
 74
0
 40
0
 40
0
 40
0
 40
0
 40
1
 40
1
 40
1
 40
1
 10
379.722719
 20
141.576735
 30
0.0
 10
379.434654
 20
140.818593
 30
0.0
 10
373.497404
 20
130.259427
 30
0.0
 10
366.528830
 20
118.111922
 30
0.0
  0
SPLINE
  5
405
100
AcDbEntity
  8
0
 62
7
100
AcDbSpline
 70
8
 71
3
 72
8
 73
4
 74
0
 40
0
 40
0
 40
0
 40
0
 40
1
 40
1
 40
1
 40
1
 10
366.528830
 20
118.111922
 30
0.0
 10
357.783271
 20
102.866749
 30
0.0
 10
353.435807
 20
95.557529
 30
0.0
 10
352.493411
 20
94.514583
 30
0.0
  0
SPLINE
  5
406
100
AcDbEntity
  8
0
 62
7
100
AcDbSpline
 70
8
 71
3
 72
8
 73
4
 74
0
 40
0
 40
0
 40
0
 40
0
 40
1
 40
1
 40
1
 40
1
 10
352.493411
 20
94.514583
 30
0.0
 10
351.109760
 20
92.983307
 30
0.0
 10
350.616830
 20
92.744448
 30
0.0
 10
347.790939
 20
92.235915
 30
0.0
  0
SPLINE
  5
407
100
AcDbEntity
  8
0
 62
7
100
AcDbSpline
 70
8
 71
3
 72
8
 73
4
 74
0
 40
0
 40
0
 40
0
 40
0
 40
1
 40
1
 40
1
 40
1
 10
347.790939
 20
92.235915
 30
0.0
 10
346.809794
 20
92.059354
 30
0.0
 10
346.501805
 20
91.873443
 30
0.0
 10
346.436752
 20
91.418551
 30
0.0
  0
SPLINE
  5
408
100
AcDbEntity
  8
0
 62
7
100
AcDbSpline
 70
8
 71
3
 72
8
 73
4
 74
0
 40
0
 40
0
 40
0
 40
0
 40
1
 40
1
 40
1
 40
1
 10
346.436752
 20
91.418551
 30
0.0
 10
346.390468
 20
91.094698
 30
0.0
 10
346.517722
 20
90.692681
 30
0.0
 10
346.719539
 20
90.525177
 30
0.0
  0
SPLINE
  5
409
100
AcDbEntity
  8
0
 62
7
100
AcDbSpline
 70
8
 71
3
 72
8
 73
4
 74
0
 40
0
 40
0
 40
0
 40
0
 40
1
 40
1
 40
1
 40
1
 10
346.719539
 20
90.525177
 30
0.0
 10
347.487071
 20
89.888201
 30
0.0
 10
370.812624
 20
77.196792
 30
0.0
 10
371.220690
 20
77.194133
 30
0.0
  0
SPLINE
  5
40a
100
AcDbEntity
  8
0
 62
7
100
AcDbSpline
 70
8
 71
3
 72
8
 73
4
 74
0
 40
0
 40
0
 40
0
 40
0
 40
1
 40
1
 40
1
 40
1
 10
371.220690
 20
77.194133
 30
0.0
 10
371.456458
 20
77.192722
 30
0.0
 10
373.520208
 20
78.979821
 30
0.0
 10
375.806801
 20
81.165742
 30
0.0
  0
LWPOLYLINE
  5
40b
100
AcDbEntity
  8
0
 62
7
100
AcDbPolyline
 90
2
 70
1
 10
52.358996
 20
65.236835
 30
0.0
 10
52.358996
 20
65.236863
 30
0.0
  0
SPLINE
  5
40c
100
AcDbEntity
  8
0
 62
7
100
AcDbSpline
 70
8
 71
3
 72
8
 73
4
 74
0
 40
0
 40
0
 40
0
 40
0
 40
1
 40
1
 40
1
 40
1
 10
79.057613
 20
83.450235
 30
0.0
 10
84.215901
 20
86.639047
 30
0.0
 10
84.006577
 20
86.475398
 30
0.0
 10
83.581946
 20
86.987022
 30
0.0
  0
SPLINE
  5
40d
100
AcDbEntity
  8
0
 62
7
100
AcDbSpline
 70
8
 71
3
 72
8
 73
4
 74
0
 40
0
 40
0
 40
0
 40
0
 40
1
 40
1
 40
1
 40
1
 10
83.581946
 20
86.987022
 30
0.0
 10
83.345923
 20
87.271417
 30
0.0
 10
82.954255
 20
87.340161
 30
0.0
 10
82.285134
 20
87.214634
 30
0.0
  0
SPLINE
  5
40e
100
AcDbEntity
  8
0
 62
7
100
AcDbSpline
 70
8
 71
3
 72
8
 73
4
 74
0
 40
0
 40
0
 40
0
 40
0
 40
1
 40
1
 40
1
 40
1
 10
82.285134
 20
87.214634
 30
0.0
 10
81.138635
 20
86.999549
 30
0.0
 10
80.171742
 20
87.538326
 30
0.0
 10
79.551417
 20
88.737914
 30
0.0
  0
SPLINE
  5
40f
100
AcDbEntity
  8
0
 62
7
100
AcDbSpline
 70
8
 71
3
 72
8
 73
4
 74
0
 40
0
 40
0
 40
0
 40
0
 40
1
 40
1
 40
1
 40
1
 10
79.551417
 20
88.737914
 30
0.0
 10
79.122044
 20
89.568198
 30
0.0
 10
76.293162
 20
100.155654
 30
0.0
 10
76.293162
 20
100.932288
 30
0.0
  0
SPLINE
  5
410
100
AcDbEntity
  8
0
 62
7
100
AcDbSpline
 70
8
 71
3
 72
8
 73
4
 74
0
 40
0
 40
0
 40
0
 40
0
 40
1
 40
1
 40
1
 40
1
 10
76.293162
 20
100.932288
 30
0.0
 10
76.293162
 20
101.440000
 30
0.0
 10
85.448846
 20
106.390971
 30
0.0
 10
85.886996
 20
106.120187
 30
0.0
  0
SPLINE
  5
411
100
AcDbEntity
  8
0
 62
7
100
AcDbSpline
 70
8
 71
3
 72
8
 73
4
 74
0
 40
0
 40
0
 40
0
 40
0
 40
1
 40
1
 40
1
 40
1
 10
85.886996
 20
106.120187
 30
0.0
 10
86.047467
 20
106.021003
 30
0.0
 10
87.625259
 20
104.159248
 30
0.0
 10
89.393155
 20
101.982959
 30
0.0
  0
SPLINE
  5
412
100
AcDbEntity
  8
0
 62
7
100
AcDbSpline
 70
8
 71
3
 72
8
 73
4
 74
0
 40
0
 40
0
 40
0
 40
0
 40
1
 40
1
 40
1
 40
1
 10
89.393155
 20
101.982959
 30
0.0
 10
93.137059
 20
97.374253
 30
0.0
 10
93.597420
 20
96.312784
 30
0.0
 10
92.715306
 20
94.323171
 30
0.0
  0
SPLINE
  5
413
100
AcDbEntity
  8
0
 62
7
100
AcDbSpline
 70
8
 71
3
 72
8
 73
4
 74
0
 40
0
 40
0
 40
0
 40
0
 40
1
 40
1
 40
1
 40
1
 10
92.715306
 20
94.323171
 30
0.0
 10
92.426028
 20
93.670721
 30
0.0
 10
91.978198
 20
92.962597
 30
0.0
 10
91.720134
 20
92.749565
 30
0.0
  0
SPLINE
  5
414
100
AcDbEntity
  8
0
 62
7
100
AcDbSpline
 70
8
 71
3
 72
8
 73
4
 74
0
 40
0
 40
0
 40
0
 40
0
 40
1
 40
1
 40
1
 40
1
 10
91.720134
 20
92.749565
 30
0.0
 10
91.145529
 20
92.275208
 30
0.0
 10
91.120553
 20
91.761990
 30
0.0
 10
91.650707
 20
91.322011
 30
0.0
  0
SPLINE
  5
415
100
AcDbEntity
  8
0
 62
7
100
AcDbSpline
 70
8
 71
3
 72
8
 73
4
 74
0
 40
0
 40
0
 40
0
 40
0
 40
1
 40
1
 40
1
 40
1
 10
91.650707
 20
91.322011
 30
0.0
 10
92.108443
 20
90.942123
 30
0.0
 10
93.750610
 20
91.708718
 30
0.0
 10
101.269828
 20
95.812404
 30
0.0
  0
SPLINE
  5
416
100
AcDbEntity
  8
0
 62
7
100
AcDbSpline
 70
8
 71
3
 72
8
 73
4
 74
0
 40
0
 40
0
 40
0
 40
0
 40
1
 40
1
 40
1
 40
1
 10
101.269828
 20
95.812404
 30
0.0
 10
103.753384
 20
97.167827
 30
0.0
 10
106.949325
 20
98.873863
 30
0.0
 10
108.371950
 20
99.603594
 30
0.0
  0
SPLINE
  5
417
100
AcDbEntity
  8
0
 62
7
100
AcDbSpline
 70
8
 71
3
 72
8
 73
4
 74
0
 40
0
 40
0
 40
0
 40
0
 40
1
 40
1
 40
1
 40
1
 10
108.371950
 20
99.603594
 30
0.0
 10
109.794576
 20
100.333325
 30
0.0
 10
111.027408
 20
101.109921
 30
0.0
 10
111.111623
 20
101.329360
 30
0.0
  0
SPLINE
  5
418
100
AcDbEntity
  8
0
 62
7
100
AcDbSpline
 70
8
 71
3
 72
8
 73
4
 74
0
 40
0
 40
0
 40
0
 40
0
 40
1
 40
1
 40
1
 40
1
 10
111.111623
 20
101.329360
 30
0.0
 10
111.352104
 20
101.956035
 30
0.0
 10
110.497056
 20
102.591342
 30
0.0
 10
109.413125
 20
102.591342
 30
0.0
  0
SPLINE
  5
419
100
AcDbEntity
  8
0
 62
7
100
AcDbSpline
 70
8
 71
3
 72
8
 73
4
 74
0
 40
0
 40
0
 40
0
 40
0
 40
1
 40
1
 40
1
 40
1
 10
109.413125
 20
102.591342
 30
0.0
 10
107.747308
 20
102.591342
 30
0.0
 10
109.650643
 20
100.361643
 30
0.0
 10
76.716495
 20
140.894830
 30
0.0
  0
SPLINE
  5
41a
100
AcDbEntity
  8
0
 62
7
100
AcDbSpline
 70
8
 71
3
 72
8
 73
4
 74
0
 40
0
 40
0
 40
0
 40
0
 40
1
 40
1
 40
1
 40
1
 10
76.716495
 20
140.894830
 30
0.0
 10
71.904606
 20
146.816987
 30
0.0
 10
67.819355
 20
151.725890
 30
0.0
 10
67.638168
 20
151.803501
 30
0.0
  0
SPLINE
  5
41b
100
AcDbEntity
  8
0
 62
7
100
AcDbSpline
 70
8
 71
3
 72
8
 73
4
 74
0
 40
0
 40
0
 40
0
 40
0
 40
1
 40
1
 40
1
 40
1
 10
67.638168
 20
151.803501
 30
0.0
 10
67.072200
 20
152.045913
 30
0.0
 10
55.955325
 20
146.561485
 30
0.0
 10
55.339432
 20
145.736031
 30
0.0
  0
SPLINE
  5
41c
100
AcDbEntity
  8
0
 62
7
100
AcDbSpline
 70
8
 71
3
 72
8
 73
4
 74
0
 40
0
 40
0
 40
0
 40
0
 40
1
 40
1
 40
1
 40
1
 10
55.339432
 20
145.736031
 30
0.0
 10
54.566510
 20
144.700061
 30
0.0
 10
55.046062
 20
143.795787
 30
0.0
 10
56.368357
 20
143.795787
 30
0.0
  0
SPLINE
  5
41d
100
AcDbEntity
  8
0
 62
7
100
AcDbSpline
 70
8
 71
3
 72
8
 73
4
 74
0
 40
0
 40
0
 40
0
 40
0
 40
1
 40
1
 40
1
 40
1
 10
56.368357
 20
143.795787
 30
0.0
 10
57.597604
 20
143.795787
 30
0.0
 10
58.613915
 20
142.966079
 30
0.0
 10
59.213863
 20
141.472737
 30
0.0
  0
SPLINE
  5
41e
100
AcDbEntity
  8
0
 62
7
100
AcDbSpline
 70
8
 71
3
 72
8
 73
4
 74
0
 40
0
 40
0
 40
0
 40
0
 40
1
 40
1
 40
1
 40
1
 10
59.213863
 20
141.472737
 30
0.0
 10
59.480055
 20
140.810135
 30
0.0
 10
60.956134
 20
135.442009
 30
0.0
 10
62.494047
 20
129.543564
 30
0.0
  0
SPLINE
  5
41f
100
AcDbEntity
  8
0
 62
7
100
AcDbSpline
 70
8
 71
3
 72
8
 73
4
 74
0
 40
0
 40
0
 40
0
 40
0
 40
1
 40
1
 40
1
 40
1
 10
62.494047
 20
129.543564
 30
0.0
 10
66.072738
 20
115.818127
 30
0.0
 10
69.339319
 20
103.302585
 30
0.0
 10
70.375780
 20
99.345787
 30
0.0
  0
SPLINE
  5
420
100
AcDbEntity
  8
0
 62
7
100
AcDbSpline
 70
8
 71
3
 72
8
 73
4
 74
0
 40
0
 40
0
 40
0
 40
0
 40
1
 40
1
 40
1
 40
1
 10
70.375780
 20
99.345787
 30
0.0
 10
74.288424
 20
84.408879
 30
0.0
 10
74.248433
 20
84.681328
 30
0.0
 10
72.902318
 20
82.122287
 30
0.0
  0
SPLINE
  5
421
100
AcDbEntity
  8
0
 62
7
100
AcDbSpline
 70
8
 71
3
 72
8
 73
4
 74
0
 40
0
 40
0
 40
0
 40
0
 40
1
 40
1
 40
1
 40
1
 10
72.902318
 20
82.122287
 30
0.0
 10
72.256424
 20
80.894422
 30
0.0
 10
72.127110
 20
80.413660
 30
0.0
 10
72.365503
 20
80.126428
 30
0.0
  0
SPLINE
  5
422
100
AcDbEntity
  8
0
 62
7
100
AcDbSpline
 70
8
 71
3
 72
8
 73
4
 74
0
 40
0
 40
0
 40
0
 40
0
 40
1
 40
1
 40
1
 40
1
 10
72.365503
 20
80.126428
 30
0.0
 10
72.764311
 20
79.645891
 30
0.0
 10
73.473028
 20
79.997901
 30
0.0
 10
79.057613
 20
83.450235
 30
0.0
  0
LWPOLYLINE
  5
423
100
AcDbEntity
  8
0
 62
7
100
AcDbPolyline
 90
2
 70
1
 10
375.806801
 20
81.165742
 30
0.0
 10
375.806801
 20
81.165742
 30
0.0
  0
SPLINE
  5
424
100
AcDbEntity
  8
0
 62
7
100
AcDbSpline
 70
8
 71
3
 72
8
 73
4
 74
0
 40
0
 40
0
 40
0
 40
0
 40
1
 40
1
 40
1
 40
1
 10
74.351360
 20
108.024120
 30
0.0
 10
74.047914
 20
108.976454
 30
0.0
 10
70.060764
 20
124.248472
 30
0.0
 10
69.985749
 20
124.745787
 30
0.0
  0
SPLINE
  5
425
100
AcDbEntity
  8
0
 62
7
100
AcDbSpline
 70
8
 71
3
 72
8
 73
4
 74
0
 40
0
 40
0
 40
0
 40
0
 40
1
 40
1
 40
1
 40
1
 10
69.985749
 20
124.745787
 30
0.0
 10
69.833067
 20
125.757632
 30
0.0
 10
71.295006
 20
124.216555
 30
0.0
 10
76.277301
 20
118.113564
 30
0.0
  0
SPLINE
  5
426
100
AcDbEntity
  8
0
 62
7
100
AcDbSpline
 70
8
 71
3
 72
8
 73
4
 74
0
 40
0
 40
0
 40
0
 40
0
 40
1
 40
1
 40
1
 40
1
 10
76.277301
 20
118.113564
 30
0.0
 10
79.381914
 20
114.310620
 30
0.0
 10
81.925555
 20
111.041349
 30
0.0
 10
81.929845
 20
110.848518
 30
0.0
  0
SPLINE
  5
427
100
AcDbEntity
  8
0
 62
7
100
AcDbSpline
 70
8
 71
3
 72
8
 73
4
 74
0
 40
0
 40
0
 40
0
 40
0
 40
1
 40
1
 40
1
 40
1
 10
81.929845
 20
110.848518
 30
0.0
 10
81.936900
 20
110.527440
 30
0.0
 10
75.517925
 20
107.106898
 30
0.0
 10
74.908269
 20
107.106898
 30
0.0
  0
SPLINE
  5
428
100
AcDbEntity
  8
0
 62
7
100
AcDbSpline
 70
8
 71
3
 72
8
 73
4
 74
0
 40
0
 40
0
 40
0
 40
0
 40
1
 40
1
 40
1
 40
1
 10
74.908269
 20
107.106898
 30
0.0
 10
74.762699
 20
107.106898
 30
0.0
 10
74.512085
 20
107.519648
 30
0.0
 10
74.351360
 20
108.024120
 30
0.0
  0
LWPOLYLINE
  5
429
100
AcDbEntity
  8
0
 62
7
100
AcDbPolyline
 90
2
 70
1
 10
79.057613
 20
83.450235
 30
0.0
 10
79.057613
 20
83.450235
 30
0.0
  0
SPLINE
  5
42a
100
AcDbEntity
  8
0
 62
7
100
AcDbSpline
 70
8
 71
3
 72
8
 73
4
 74
0
 40
0
 40
0
 40
0
 40
0
 40
1
 40
1
 40
1
 40
1
 10
347.297050
 20
96.063466
 30
0.0
 10
348.965689
 20
98.273074
 30
0.0
 10
350.330939
 20
100.268761
 30
0.0
 10
350.330939
 20
100.498329
 30
0.0
  0
SPLINE
  5
42b
100
AcDbEntity
  8
0
 62
7
100
AcDbSpline
 70
8
 71
3
 72
8
 73
4
 74
0
 40
0
 40
0
 40
0
 40
0
 40
1
 40
1
 40
1
 40
1
 10
350.330939
 20
100.498329
 30
0.0
 10
350.330939
 20
101.299498
 30
0.0
 10
349.472363
 20
101.231248
 30
0.0
 10
347.010059
 20
100.234341
 30
0.0
  0
SPLINE
  5
42c
100
AcDbEntity
  8
0
 62
7
100
AcDbSpline
 70
8
 71
3
 72
8
 73
4
 74
0
 40
0
 40
0
 40
0
 40
0
 40
1
 40
1
 40
1
 40
1
 10
347.010059
 20
100.234341
 30
0.0
 10
341.301522
 20
97.923127
 30
0.0
 10
338.440324
 20
97.815640
 30
0.0
 10
336.294222
 20
99.831785
 30
0.0
  0
SPLINE
  5
42d
100
AcDbEntity
  8
0
 62
7
100
AcDbSpline
 70
8
 71
3
 72
8
 73
4
 74
0
 40
0
 40
0
 40
0
 40
0
 40
1
 40
1
 40
1
 40
1
 10
336.294222
 20
99.831785
 30
0.0
 10
335.211166
 20
100.849272
 30
0.0
 10
334.604953
 20
99.275440
 30
0.0
 10
343.811493
 20
119.347973
 30
0.0
  0
SPLINE
  5
42e
100
AcDbEntity
  8
0
 62
7
100
AcDbSpline
 70
8
 71
3
 72
8
 73
4
 74
0
 40
0
 40
0
 40
0
 40
0
 40
1
 40
1
 40
1
 40
1
 10
343.811493
 20
119.347973
 30
0.0
 10
345.368795
 20
122.743287
 30
0.0
 10
346.833246
 20
125.811703
 30
0.0
 10
347.065826
 20
126.166677
 30
0.0
  0
SPLINE
  5
42f
100
AcDbEntity
  8
0
 62
7
100
AcDbSpline
 70
8
 71
3
 72
8
 73
4
 74
0
 40
0
 40
0
 40
0
 40
0
 40
1
 40
1
 40
1
 40
1
 10
347.065826
 20
126.166677
 30
0.0
 10
348.254320
 20
127.980530
 30
0.0
 10
351.263148
 20
127.473721
 30
0.0
 10
351.958995
 20
125.342475
 30
0.0
  0
SPLINE
  5
430
100
AcDbEntity
  8
0
 62
7
100
AcDbSpline
 70
8
 71
3
 72
8
 73
4
 74
0
 40
0
 40
0
 40
0
 40
0
 40
1
 40
1
 40
1
 40
1
 10
351.958995
 20
125.342475
 30
0.0
 10
352.257445
 20
124.428306
 30
0.0
 10
352.238564
 20
123.691334
 30
0.0
 10
351.845485
 20
120.913474
 30
0.0
  0
SPLINE
  5
431
100
AcDbEntity
  8
0
 62
7
100
AcDbSpline
 70
8
 71
3
 72
8
 73
4
 74
0
 40
0
 40
0
 40
0
 40
0
 40
1
 40
1
 40
1
 40
1
 10
351.845485
 20
120.913474
 30
0.0
 10
351.404569
 20
117.797504
 30
0.0
 10
351.404654
 20
117.534264
 30
0.0
 10
351.845485
 20
116.859564
 30
0.0
  0
SPLINE
  5
432
100
AcDbEntity
  8
0
 62
7
100
AcDbSpline
 70
8
 71
3
 72
8
 73
4
 74
0
 40
0
 40
0
 40
0
 40
0
 40
1
 40
1
 40
1
 40
1
 10
351.845485
 20
116.859564
 30
0.0
 10
352.908814
 20
115.236704
 30
0.0
 10
353.360623
 20
115.805551
 30
0.0
 10
356.544541
 20
122.776130
 30
0.0
  0
SPLINE
  5
433
100
AcDbEntity
  8
0
 62
7
100
AcDbSpline
 70
8
 71
3
 72
8
 73
4
 74
0
 40
0
 40
0
 40
0
 40
0
 40
1
 40
1
 40
1
 40
1
 10
356.544541
 20
122.776130
 30
0.0
 10
361.907384
 20
134.517031
 30
0.0
 10
362.244555
 20
135.327839
 30
0.0
 10
362.063623
 20
136.048713
 30
0.0
  0
SPLINE
  5
434
100
AcDbEntity
  8
0
 62
7
100
AcDbSpline
 70
8
 71
3
 72
8
 73
4
 74
0
 40
0
 40
0
 40
0
 40
0
 40
1
 40
1
 40
1
 40
1
 10
362.063623
 20
136.048713
 30
0.0
 10
361.723884
 20
137.402361
 30
0.0
 10
360.746379
 20
136.934521
 30
0.0
 10
358.283002
 20
134.239248
 30
0.0
  0
SPLINE
  5
435
100
AcDbEntity
  8
0
 62
7
100
AcDbSpline
 70
8
 71
3
 72
8
 73
4
 74
0
 40
0
 40
0
 40
0
 40
0
 40
1
 40
1
 40
1
 40
1
 10
358.283002
 20
134.239248
 30
0.0
 10
355.175397
 20
130.839083
 30
0.0
 10
354.025595
 20
130.441827
 30
0.0
 10
352.065534
 20
132.091111
 30
0.0
  0
SPLINE
  5
436
100
AcDbEntity
  8
0
 62
7
100
AcDbSpline
 70
8
 71
3
 72
8
 73
4
 74
0
 40
0
 40
0
 40
0
 40
0
 40
1
 40
1
 40
1
 40
1
 10
352.065534
 20
132.091111
 30
0.0
 10
350.749334
 20
133.198616
 30
0.0
 10
350.702372
 20
134.095987
 30
0.0
 10
351.826830
 20
136.653414
 30
0.0
  0
SPLINE
  5
437
100
AcDbEntity
  8
0
 62
7
100
AcDbSpline
 70
8
 71
3
 72
8
 73
4
 74
0
 40
0
 40
0
 40
0
 40
0
 40
1
 40
1
 40
1
 40
1
 10
351.826830
 20
136.653414
 30
0.0
 10
353.457933
 20
140.363231
 30
0.0
 10
358.857127
 20
151.799372
 30
0.0
 10
359.297619
 20
152.477436
 30
0.0
  0
SPLINE
  5
438
100
AcDbEntity
  8
0
 62
7
100
AcDbSpline
 70
8
 71
3
 72
8
 73
4
 74
0
 40
0
 40
0
 40
0
 40
0
 40
1
 40
1
 40
1
 40
1
 10
359.297619
 20
152.477436
 30
0.0
 10
360.724789
 20
154.674319
 30
0.0
 10
364.666220
 20
152.321878
 30
0.0
 10
366.611098
 20
148.112387
 30
0.0
  0
SPLINE
  5
439
100
AcDbEntity
  8
0
 62
7
100
AcDbSpline
 70
8
 71
3
 72
8
 73
4
 74
0
 40
0
 40
0
 40
0
 40
0
 40
1
 40
1
 40
1
 40
1
 10
366.611098
 20
148.112387
 30
0.0
 10
367.413738
 20
146.375188
 30
0.0
 10
367.624106
 20
145.515502
 30
0.0
 10
367.798999
 20
143.257722
 30
0.0
  0
SPLINE
  5
43a
100
AcDbEntity
  8
0
 62
7
100
AcDbSpline
 70
8
 71
3
 72
8
 73
4
 74
0
 40
0
 40
0
 40
0
 40
0
 40
1
 40
1
 40
1
 40
1
 10
367.798999
 20
143.257722
 30
0.0
 10
367.915867
 20
141.748722
 30
0.0
 10
368.104589
 20
140.363468
 30
0.0
 10
368.218381
 20
140.179380
 30
0.0
  0
SPLINE
  5
43b
100
AcDbEntity
  8
0
 62
7
100
AcDbSpline
 70
8
 71
3
 72
8
 73
4
 74
0
 40
0
 40
0
 40
0
 40
0
 40
1
 40
1
 40
1
 40
1
 10
368.218381
 20
140.179380
 30
0.0
 10
368.521770
 20
139.688471
 30
0.0
 10
369.179715
 20
139.771380
 30
0.0
 10
369.481608
 20
140.338564
 30
0.0
  0
SPLINE
  5
43c
100
AcDbEntity
  8
0
 62
7
100
AcDbSpline
 70
8
 71
3
 72
8
 73
4
 74
0
 40
0
 40
0
 40
0
 40
0
 40
1
 40
1
 40
1
 40
1
 10
369.481608
 20
140.338564
 30
0.0
 10
369.958564
 20
141.234651
 30
0.0
 10
372.674698
 20
151.162472
 30
0.0
 10
372.536410
 20
151.504342
 30
0.0
  0
SPLINE
  5
43d
100
AcDbEntity
  8
0
 62
7
100
AcDbSpline
 70
8
 71
3
 72
8
 73
4
 74
0
 40
0
 40
0
 40
0
 40
0
 40
1
 40
1
 40
1
 40
1
 10
372.536410
 20
151.504342
 30
0.0
 10
372.461959
 20
151.688470
 30
0.0
 10
371.213211
 20
152.368916
 30
0.0
 10
369.761460
 20
153.016444
 30
0.0
  0
SPLINE
  5
43e
100
AcDbEntity
  8
0
 62
7
100
AcDbSpline
 70
8
 71
3
 72
8
 73
4
 74
0
 40
0
 40
0
 40
0
 40
0
 40
1
 40
1
 40
1
 40
1
 10
369.761460
 20
153.016444
 30
0.0
 10
368.309708
 20
153.663975
 30
0.0
 10
362.463165
 20
156.299225
 30
0.0
 10
356.769106
 20
158.872555
 30
0.0
  0
SPLINE
  5
43f
100
AcDbEntity
  8
0
 62
7
100
AcDbSpline
 70
8
 71
3
 72
8
 73
4
 74
0
 40
0
 40
0
 40
0
 40
0
 40
1
 40
1
 40
1
 40
1
 10
356.769106
 20
158.872555
 30
0.0
 10
351.076316
 20
161.445888
 30
0.0
 10
346.234117
 20
163.551342
 30
0.0
 10
346.009920
 20
163.551342
 30
0.0
  0
SPLINE
  5
440
100
AcDbEntity
  8
0
 62
7
100
AcDbSpline
 70
8
 71
3
 72
8
 73
4
 74
0
 40
0
 40
0
 40
0
 40
0
 40
1
 40
1
 40
1
 40
1
 10
346.009920
 20
163.551342
 30
0.0
 10
345.785722
 20
163.551342
 30
0.0
 10
345.451769
 20
163.369983
 30
0.0
 10
345.267788
 20
163.148323
 30
0.0
  0
SPLINE
  5
441
100
AcDbEntity
  8
0
 62
7
100
AcDbSpline
 70
8
 71
3
 72
8
 73
4
 74
0
 40
0
 40
0
 40
0
 40
0
 40
1
 40
1
 40
1
 40
1
 10
345.267788
 20
163.148323
 30
0.0
 10
345.003261
 20
162.829573
 30
0.0
 10
345.084541
 20
162.461234
 30
0.0
 10
345.656577
 20
161.386681
 30
0.0
  0
SPLINE
  5
442
100
AcDbEntity
  8
0
 62
7
100
AcDbSpline
 70
8
 71
3
 72
8
 73
4
 74
0
 40
0
 40
0
 40
0
 40
0
 40
1
 40
1
 40
1
 40
1
 10
345.656577
 20
161.386681
 30
0.0
 10
346.453714
 20
159.889261
 30
0.0
 10
346.600300
 20
158.076437
 30
0.0
 10
346.054313
 20
156.467344
 30
0.0
  0
SPLINE
  5
443
100
AcDbEntity
  8
0
 62
7
100
AcDbSpline
 70
8
 71
3
 72
8
 73
4
 74
0
 40
0
 40
0
 40
0
 40
0
 40
1
 40
1
 40
1
 40
1
 10
346.054313
 20
156.467344
 30
0.0
 10
345.708676
 20
155.448643
 30
0.0
 10
325.417547
 20
111.144716
 30
0.0
 10
324.254876
 20
108.870109
 30
0.0
  0
SPLINE
  5
444
100
AcDbEntity
  8
0
 62
7
100
AcDbSpline
 70
8
 71
3
 72
8
 73
4
 74
0
 40
0
 40
0
 40
0
 40
0
 40
1
 40
1
 40
1
 40
1
 10
324.254876
 20
108.870109
 30
0.0
 10
323.153955
 20
106.716364
 30
0.0
 10
321.717783
 20
105.257222
 30
0.0
 10
319.996679
 20
104.543868
 30
0.0
  0
SPLINE
  5
445
100
AcDbEntity
  8
0
 62
7
100
AcDbSpline
 70
8
 71
3
 72
8
 73
4
 74
0
 40
0
 40
0
 40
0
 40
0
 40
1
 40
1
 40
1
 40
1
 10
319.996679
 20
104.543868
 30
0.0
 10
318.372716
 20
103.870774
 30
0.0
 10
317.809146
 20
103.089707
 30
0.0
 10
318.481371
 20
102.443777
 30
0.0
  0
SPLINE
  5
446
100
AcDbEntity
  8
0
 62
7
100
AcDbSpline
 70
8
 71
3
 72
8
 73
4
 74
0
 40
0
 40
0
 40
0
 40
0
 40
1
 40
1
 40
1
 40
1
 10
318.481371
 20
102.443777
 30
0.0
 10
318.691345
 20
102.242008
 30
0.0
 10
324.260662
 20
99.861172
 30
0.0
 10
330.857606
 20
97.153027
 30
0.0
  0
SPLINE
  5
447
100
AcDbEntity
  8
0
 62
7
100
AcDbSpline
 70
8
 71
3
 72
8
 73
4
 74
0
 40
0
 40
0
 40
0
 40
0
 40
1
 40
1
 40
1
 40
1
 10
330.857606
 20
97.153027
 30
0.0
 10
344.732412
 20
91.457210
 30
0.0
 10
343.620316
 20
91.895589
 30
0.0
 10
343.980939
 20
91.979967
 30
0.0
  0
SPLINE
  5
448
100
AcDbEntity
  8
0
 62
7
100
AcDbSpline
 70
8
 71
3
 72
8
 73
4
 74
0
 40
0
 40
0
 40
0
 40
0
 40
1
 40
1
 40
1
 40
1
 10
343.980939
 20
91.979967
 30
0.0
 10
344.136162
 20
92.016286
 30
0.0
 10
345.628412
 20
93.853861
 30
0.0
 10
347.297050
 20
96.063466
 30
0.0
  0
LWPOLYLINE
  5
449
100
AcDbEntity
  8
0
 62
7
100
AcDbPolyline
 90
2
 70
1
 10
74.351360
 20
108.024120
 30
0.0
 10
74.351360
 20
108.024120
 30
0.0
  0
SPLINE
  5
44a
100
AcDbEntity
  8
0
 62
7
100
AcDbSpline
 70
8
 71
3
 72
8
 73
4
 74
0
 40
0
 40
0
 40
0
 40
0
 40
1
 40
1
 40
1
 40
1
 10
125.722888
 20
102.868908
 30
0.0
 10
130.257889
 20
104.284280
 30
0.0
 10
133.182191
 20
108.445932
 30
0.0
 10
133.514140
 20
113.956843
 30
0.0
  0
SPLINE
  5
44b
100
AcDbEntity
  8
0
 62
7
100
AcDbSpline
 70
8
 71
3
 72
8
 73
4
 74
0
 40
0
 40
0
 40
0
 40
0
 40
1
 40
1
 40
1
 40
1
 10
133.514140
 20
113.956843
 30
0.0
 10
133.646108
 20
116.147559
 30
0.0
 10
133.571516
 20
116.714335
 30
0.0
 10
132.865904
 20
118.883520
 30
0.0
  0
SPLINE
  5
44c
100
AcDbEntity
  8
0
 62
7
100
AcDbSpline
 70
8
 71
3
 72
8
 73
4
 74
0
 40
0
 40
0
 40
0
 40
0
 40
1
 40
1
 40
1
 40
1
 10
132.865904
 20
118.883520
 30
0.0
 10
131.813752
 20
122.117985
 30
0.0
 10
130.201924
 20
124.469404
 30
0.0
 10
128.218748
 20
125.663009
 30
0.0
  0
SPLINE
  5
44d
100
AcDbEntity
  8
0
 62
7
100
AcDbSpline
 70
8
 71
3
 72
8
 73
4
 74
0
 40
0
 40
0
 40
0
 40
0
 40
1
 40
1
 40
1
 40
1
 10
128.218748
 20
125.663009
 30
0.0
 10
126.525584
 20
126.682079
 30
0.0
 10
124.835384
 20
126.908154
 30
0.0
 10
124.835384
 20
126.115555
 30
0.0
  0
SPLINE
  5
44e
100
AcDbEntity
  8
0
 62
7
100
AcDbSpline
 70
8
 71
3
 72
8
 73
4
 74
0
 40
0
 40
0
 40
0
 40
0
 40
1
 40
1
 40
1
 40
1
 10
124.835384
 20
126.115555
 30
0.0
 10
124.835384
 20
125.859980
 30
0.0
 10
125.292104
 20
124.962790
 30
0.0
 10
125.850340
 20
124.121799
 30
0.0
  0
SPLINE
  5
44f
100
AcDbEntity
  8
0
 62
7
100
AcDbSpline
 70
8
 71
3
 72
8
 73
4
 74
0
 40
0
 40
0
 40
0
 40
0
 40
1
 40
1
 40
1
 40
1
 10
125.850340
 20
124.121799
 30
0.0
 10
128.145766
 20
120.663564
 30
0.0
 10
129.010184
 20
116.963596
 30
0.0
 10
128.493689
 20
112.807202
 30
0.0
  0
SPLINE
  5
450
100
AcDbEntity
  8
0
 62
7
100
AcDbSpline
 70
8
 71
3
 72
8
 73
4
 74
0
 40
0
 40
0
 40
0
 40
0
 40
1
 40
1
 40
1
 40
1
 10
128.493689
 20
112.807202
 30
0.0
 10
127.936046
 20
108.319742
 30
0.0
 10
126.519009
 20
106.260231
 30
0.0
 10
123.988999
 20
106.260231
 30
0.0
  0
SPLINE
  5
451
100
AcDbEntity
  8
0
 62
7
100
AcDbSpline
 70
8
 71
3
 72
8
 73
4
 74
0
 40
0
 40
0
 40
0
 40
0
 40
1
 40
1
 40
1
 40
1
 10
123.988999
 20
106.260231
 30
0.0
 10
122.877213
 20
106.260231
 30
0.0
 10
122.393541
 20
106.434091
 30
0.0
 10
121.402433
 20
107.190029
 30
0.0
  0
SPLINE
  5
452
100
AcDbEntity
  8
0
 62
7
100
AcDbSpline
 70
8
 71
3
 72
8
 73
4
 74
0
 40
0
 40
0
 40
0
 40
0
 40
1
 40
1
 40
1
 40
1
 10
121.402433
 20
107.190029
 30
0.0
 10
118.978962
 20
109.038469
 30
0.0
 10
116.461004
 20
113.232012
 30
0.0
 10
114.589362
 20
118.536898
 30
0.0
  0
SPLINE
  5
453
100
AcDbEntity
  8
0
 62
7
100
AcDbSpline
 70
8
 71
3
 72
8
 73
4
 74
0
 40
0
 40
0
 40
0
 40
0
 40
1
 40
1
 40
1
 40
1
 10
114.589362
 20
118.536898
 30
0.0
 10
112.177012
 20
125.374273
 30
0.0
 10
102.840988
 20
154.263542
 30
0.0
 10
102.530910
 20
155.850387
 30
0.0
  0
SPLINE
  5
454
100
AcDbEntity
  8
0
 62
7
100
AcDbSpline
 70
8
 71
3
 72
8
 73
4
 74
0
 40
0
 40
0
 40
0
 40
0
 40
1
 40
1
 40
1
 40
1
 10
102.530910
 20
155.850387
 30
0.0
 10
101.530940
 20
160.967629
 30
0.0
 10
103.458744
 20
164.229308
 30
0.0
 10
107.478717
 20
164.221710
 30
0.0
  0
SPLINE
  5
455
100
AcDbEntity
  8
0
 62
7
100
AcDbSpline
 70
8
 71
3
 72
8
 73
4
 74
0
 40
0
 40
0
 40
0
 40
0
 40
1
 40
1
 40
1
 40
1
 10
107.478717
 20
164.221710
 30
0.0
 10
109.562505
 20
164.217759
 30
0.0
 10
111.537044
 20
163.075846
 30
0.0
 10
114.311091
 20
160.270404
 30
0.0
  0
SPLINE
  5
456
100
AcDbEntity
  8
0
 62
7
100
AcDbSpline
 70
8
 71
3
 72
8
 73
4
 74
0
 40
0
 40
0
 40
0
 40
0
 40
1
 40
1
 40
1
 40
1
 10
114.311091
 20
160.270404
 30
0.0
 10
116.593818
 20
157.961835
 30
0.0
 10
117.027508
 20
157.656798
 30
0.0
 10
117.330333
 20
158.146784
 30
0.0
  0
SPLINE
  5
457
100
AcDbEntity
  8
0
 62
7
100
AcDbSpline
 70
8
 71
3
 72
8
 73
4
 74
0
 40
0
 40
0
 40
0
 40
0
 40
1
 40
1
 40
1
 40
1
 10
117.330333
 20
158.146784
 30
0.0
 10
117.411867
 20
158.278723
 30
0.0
 10
116.589810
 20
161.136223
 30
0.0
 10
115.503537
 20
164.496784
 30
0.0
  0
SPLINE
  5
458
100
AcDbEntity
  8
0
 62
7
100
AcDbSpline
 70
8
 71
3
 72
8
 73
4
 74
0
 40
0
 40
0
 40
0
 40
0
 40
1
 40
1
 40
1
 40
1
 10
115.503537
 20
164.496784
 30
0.0
 10
113.825472
 20
169.688152
 30
0.0
 10
113.445826
 20
170.606898
 30
0.0
 10
112.978777
 20
170.606898
 30
0.0
  0
SPLINE
  5
459
100
AcDbEntity
  8
0
 62
7
100
AcDbSpline
 70
8
 71
3
 72
8
 73
4
 74
0
 40
0
 40
0
 40
0
 40
0
 40
1
 40
1
 40
1
 40
1
 10
112.978777
 20
170.606898
 30
0.0
 10
112.620665
 20
170.606898
 30
0.0
 10
112.226316
 20
170.209456
 30
0.0
 10
111.847348
 20
169.466638
 30
0.0
  0
SPLINE
  5
45a
100
AcDbEntity
  8
0
 62
7
100
AcDbSpline
 70
8
 71
3
 72
8
 73
4
 74
0
 40
0
 40
0
 40
0
 40
0
 40
1
 40
1
 40
1
 40
1
 10
111.847348
 20
169.466638
 30
0.0
 10
111.527421
 20
168.839495
 30
0.0
 10
110.985074
 20
168.220830
 30
0.0
 10
110.642174
 20
168.091826
 30
0.0
  0
SPLINE
  5
45b
100
AcDbEntity
  8
0
 62
7
100
AcDbSpline
 70
8
 71
3
 72
8
 73
4
 74
0
 40
0
 40
0
 40
0
 40
0
 40
1
 40
1
 40
1
 40
1
 10
110.642174
 20
168.091826
 30
0.0
 10
110.299274
 20
167.962823
 30
0.0
 10
108.050217
 20
167.455833
 30
0.0
 10
105.644273
 20
166.965181
 30
0.0
  0
SPLINE
  5
45c
100
AcDbEntity
  8
0
 62
7
100
AcDbSpline
 70
8
 71
3
 72
8
 73
4
 74
0
 40
0
 40
0
 40
0
 40
0
 40
1
 40
1
 40
1
 40
1
 10
105.644273
 20
166.965181
 30
0.0
 10
100.351675
 20
165.885845
 30
0.0
 10
98.336693
 20
164.997065
 30
0.0
 10
96.445493
 20
162.907715
 30
0.0
  0
SPLINE
  5
45d
100
AcDbEntity
  8
0
 62
7
100
AcDbSpline
 70
8
 71
3
 72
8
 73
4
 74
0
 40
0
 40
0
 40
0
 40
0
 40
1
 40
1
 40
1
 40
1
 10
96.445493
 20
162.907715
 30
0.0
 10
88.748362
 20
154.404167
 30
0.0
 10
91.746945
 20
131.898534
 30
0.0
 10
102.824901
 20
115.027761
 30
0.0
  0
SPLINE
  5
45e
100
AcDbEntity
  8
0
 62
7
100
AcDbSpline
 70
8
 71
3
 72
8
 73
4
 74
0
 40
0
 40
0
 40
0
 40
0
 40
1
 40
1
 40
1
 40
1
 10
102.824901
 20
115.027761
 30
0.0
 10
105.958330
 20
110.255812
 30
0.0
 10
111.272489
 20
105.363721
 30
0.0
 10
115.119968
 20
103.709216
 30
0.0
  0
SPLINE
  5
45f
100
AcDbEntity
  8
0
 62
7
100
AcDbSpline
 70
8
 71
3
 72
8
 73
4
 74
0
 40
0
 40
0
 40
0
 40
0
 40
1
 40
1
 40
1
 40
1
 10
115.119968
 20
103.709216
 30
0.0
 10
118.640747
 20
102.195190
 30
0.0
 10
122.567164
 20
101.884012
 30
0.0
 10
125.722888
 20
102.868908
 30
0.0
  0
LWPOLYLINE
  5
460
100
AcDbEntity
  8
0
 62
7
100
AcDbPolyline
 90
2
 70
1
 10
347.297050
 20
96.063466
 30
0.0
 10
347.297050
 20
96.063466
 30
0.0
  0
SPLINE
  5
461
100
AcDbEntity
  8
0
 62
7
100
AcDbSpline
 70
8
 71
3
 72
8
 73
4
 74
0
 40
0
 40
0
 40
0
 40
0
 40
1
 40
1
 40
1
 40
1
 10
316.864520
 20
103.327093
 30
0.0
 10
317.524610
 20
103.580393
 30
0.0
 10
317.409153
 20
104.430280
 30
0.0
 10
316.534828
 20
105.754114
 30
0.0
  0
SPLINE
  5
462
100
AcDbEntity
  8
0
 62
7
100
AcDbSpline
 70
8
 71
3
 72
8
 73
4
 74
0
 40
0
 40
0
 40
0
 40
0
 40
1
 40
1
 40
1
 40
1
 10
316.534828
 20
105.754114
 30
0.0
 10
315.871691
 20
106.758173
 30
0.0
 10
315.763966
 20
107.198919
 30
0.0
 10
315.794785
 20
108.781952
 30
0.0
  0
SPLINE
  5
463
100
AcDbEntity
  8
0
 62
7
100
AcDbSpline
 70
8
 71
3
 72
8
 73
4
 74
0
 40
0
 40
0
 40
0
 40
0
 40
1
 40
1
 40
1
 40
1
 10
315.794785
 20
108.781952
 30
0.0
 10
315.824983
 20
110.332483
 30
0.0
 10
316.208297
 20
111.693424
 30
0.0
 10
318.144793
 20
117.125787
 30
0.0
  0
SPLINE
  5
464
100
AcDbEntity
  8
0
 62
7
100
AcDbSpline
 70
8
 71
3
 72
8
 73
4
 74
0
 40
0
 40
0
 40
0
 40
0
 40
1
 40
1
 40
1
 40
1
 10
318.144793
 20
117.125787
 30
0.0
 10
319.417446
 20
120.695898
 30
0.0
 10
323.316290
 20
131.681398
 30
0.0
 10
326.808874
 20
141.538009
 30
0.0
  0
SPLINE
  5
465
100
AcDbEntity
  8
0
 62
7
100
AcDbSpline
 70
8
 71
3
 72
8
 73
4
 74
0
 40
0
 40
0
 40
0
 40
0
 40
1
 40
1
 40
1
 40
1
 10
326.808874
 20
141.538009
 30
0.0
 10
330.301487
 20
151.394620
 30
0.0
 10
333.453571
 20
159.967275
 30
0.0
 10
333.813517
 20
160.588353
 30
0.0
  0
SPLINE
  5
466
100
AcDbEntity
  8
0
 62
7
100
AcDbSpline
 70
8
 71
3
 72
8
 73
4
 74
0
 40
0
 40
0
 40
0
 40
0
 40
1
 40
1
 40
1
 40
1
 10
333.813517
 20
160.588353
 30
0.0
 10
334.688942
 20
162.098809
 30
0.0
 10
335.340424
 20
162.647317
 30
0.0
 10
336.937745
 20
163.218803
 30
0.0
  0
SPLINE
  5
467
100
AcDbEntity
  8
0
 62
7
100
AcDbSpline
 70
8
 71
3
 72
8
 73
4
 74
0
 40
0
 40
0
 40
0
 40
0
 40
1
 40
1
 40
1
 40
1
 10
336.937745
 20
163.218803
 30
0.0
 10
338.528801
 20
163.788042
 30
0.0
 10
339.097197
 20
164.473168
 30
0.0
 10
338.472808
 20
165.069167
 30
0.0
  0
SPLINE
  5
468
100
AcDbEntity
  8
0
 62
7
100
AcDbSpline
 70
8
 71
3
 72
8
 73
4
 74
0
 40
0
 40
0
 40
0
 40
0
 40
1
 40
1
 40
1
 40
1
 10
338.472808
 20
165.069167
 30
0.0
 10
337.983378
 20
165.536355
 30
0.0
 10
321.096696
 20
171.453564
 30
0.0
 10
320.252880
 20
171.453564
 30
0.0
  0
SPLINE
  5
469
100
AcDbEntity
  8
0
 62
7
100
AcDbSpline
 70
8
 71
3
 72
8
 73
4
 74
0
 40
0
 40
0
 40
0
 40
0
 40
1
 40
1
 40
1
 40
1
 10
320.252880
 20
171.453564
 30
0.0
 10
319.700204
 20
171.453564
 30
0.0
 10
319.004273
 20
170.971825
 30
0.0
 10
319.004273
 20
170.589259
 30
0.0
  0
SPLINE
  5
46a
100
AcDbEntity
  8
0
 62
7
100
AcDbSpline
 70
8
 71
3
 72
8
 73
4
 74
0
 40
0
 40
0
 40
0
 40
0
 40
1
 40
1
 40
1
 40
1
 10
319.004273
 20
170.589259
 30
0.0
 10
319.004273
 20
170.486426
 30
0.0
 10
319.374830
 20
169.935988
 30
0.0
 10
319.827769
 20
169.366063
 30
0.0
  0
SPLINE
  5
46b
100
AcDbEntity
  8
0
 62
7
100
AcDbSpline
 70
8
 71
3
 72
8
 73
4
 74
0
 40
0
 40
0
 40
0
 40
0
 40
1
 40
1
 40
1
 40
1
 10
319.827769
 20
169.366063
 30
0.0
 10
320.280679
 20
168.796140
 30
0.0
 10
320.731783
 20
167.853208
 30
0.0
 10
320.830194
 20
167.270661
 30
0.0
  0
SPLINE
  5
46c
100
AcDbEntity
  8
0
 62
7
100
AcDbSpline
 70
8
 71
3
 72
8
 73
4
 74
0
 40
0
 40
0
 40
0
 40
0
 40
1
 40
1
 40
1
 40
1
 10
320.830194
 20
167.270661
 30
0.0
 10
321.151758
 20
165.367352
 30
0.0
 10
321.921293
 20
167.707866
 30
0.0
 10
308.430309
 20
129.556727
 30
0.0
  0
SPLINE
  5
46d
100
AcDbEntity
  8
0
 62
7
100
AcDbSpline
 70
8
 71
3
 72
8
 73
4
 74
0
 40
0
 40
0
 40
0
 40
0
 40
1
 40
1
 40
1
 40
1
 10
308.430309
 20
129.556727
 30
0.0
 10
305.853056
 20
122.268522
 30
0.0
 10
303.412511
 20
115.565851
 30
0.0
 10
303.006845
 20
114.661908
 30
0.0
  0
SPLINE
  5
46e
100
AcDbEntity
  8
0
 62
7
100
AcDbSpline
 70
8
 71
3
 72
8
 73
4
 74
0
 40
0
 40
0
 40
0
 40
0
 40
1
 40
1
 40
1
 40
1
 10
303.006845
 20
114.661908
 30
0.0
 10
302.149425
 20
112.751354
 30
0.0
 10
300.839604
 20
111.486386
 30
0.0
 10
299.285293
 20
111.067858
 30
0.0
  0
SPLINE
  5
46f
100
AcDbEntity
  8
0
 62
7
100
AcDbSpline
 70
8
 71
3
 72
8
 73
4
 74
0
 40
0
 40
0
 40
0
 40
0
 40
1
 40
1
 40
1
 40
1
 10
299.285293
 20
111.067858
 30
0.0
 10
298.680463
 20
110.904991
 30
0.0
 10
298.041878
 20
110.598579
 30
0.0
 10
297.866223
 20
110.386944
 30
0.0
  0
SPLINE
  5
470
100
AcDbEntity
  8
0
 62
7
100
AcDbSpline
 70
8
 71
3
 72
8
 73
4
 74
0
 40
0
 40
0
 40
0
 40
0
 40
1
 40
1
 40
1
 40
1
 10
297.866223
 20
110.386944
 30
0.0
 10
297.147432
 20
109.520840
 30
0.0
 10
298.425334
 20
108.885575
 30
0.0
 10
305.316495
 20
106.683294
 30
0.0
  0
SPLINE
  5
471
100
AcDbEntity
  8
0
 62
7
100
AcDbSpline
 70
8
 71
3
 72
8
 73
4
 74
0
 40
0
 40
0
 40
0
 40
0
 40
1
 40
1
 40
1
 40
1
 10
305.316495
 20
106.683294
 30
0.0
 10
309.041828
 20
105.492748
 30
0.0
 10
312.978828
 20
104.224540
 30
0.0
 10
314.065384
 20
103.865053
 30
0.0
  0
SPLINE
  5
472
100
AcDbEntity
  8
0
 62
7
100
AcDbSpline
 70
8
 71
3
 72
8
 73
4
 74
0
 40
0
 40
0
 40
0
 40
0
 40
1
 40
1
 40
1
 40
1
 10
314.065384
 20
103.865053
 30
0.0
 10
316.406699
 20
103.090432
 30
0.0
 10
316.300810
 20
103.110778
 30
0.0
 10
316.864520
 20
103.327093
 30
0.0
  0
LWPOLYLINE
  5
473
100
AcDbEntity
  8
0
 62
7
100
AcDbPolyline
 90
2
 70
1
 10
125.722888
 20
102.868908
 30
0.0
 10
125.722888
 20
102.868908
 30
0.0
  0
SPLINE
  5
474
100
AcDbEntity
  8
0
 62
7
100
AcDbSpline
 70
8
 71
3
 72
8
 73
4
 74
0
 40
0
 40
0
 40
0
 40
0
 40
1
 40
1
 40
1
 40
1
 10
143.611177
 20
110.037166
 30
0.0
 10
147.021663
 20
111.027924
 30
0.0
 10
150.809254
 20
112.130758
 30
0.0
 10
152.028031
 20
112.487910
 30
0.0
  0
SPLINE
  5
475
100
AcDbEntity
  8
0
 62
7
100
AcDbSpline
 70
8
 71
3
 72
8
 73
4
 74
0
 40
0
 40
0
 40
0
 40
0
 40
1
 40
1
 40
1
 40
1
 10
152.028031
 20
112.487910
 30
0.0
 10
153.246808
 20
112.845063
 30
0.0
 10
154.315216
 20
113.322806
 30
0.0
 10
154.402226
 20
113.549565
 30
0.0
  0
SPLINE
  5
476
100
AcDbEntity
  8
0
 62
7
100
AcDbSpline
 70
8
 71
3
 72
8
 73
4
 74
0
 40
0
 40
0
 40
0
 40
0
 40
1
 40
1
 40
1
 40
1
 10
154.402226
 20
113.549565
 30
0.0
 10
154.593996
 20
114.049308
 30
0.0
 10
153.738919
 20
114.726898
 30
0.0
 10
152.916495
 20
114.726898
 30
0.0
  0
SPLINE
  5
477
100
AcDbEntity
  8
0
 62
7
100
AcDbSpline
 70
8
 71
3
 72
8
 73
4
 74
0
 40
0
 40
0
 40
0
 40
0
 40
1
 40
1
 40
1
 40
1
 10
152.916495
 20
114.726898
 30
0.0
 10
151.664021
 20
114.726898
 30
0.0
 10
151.354338
 20
115.334804
 30
0.0
 10
150.251640
 20
119.958135
 30
0.0
  0
SPLINE
  5
478
100
AcDbEntity
  8
0
 62
7
100
AcDbSpline
 70
8
 71
3
 72
8
 73
4
 74
0
 40
0
 40
0
 40
0
 40
0
 40
1
 40
1
 40
1
 40
1
 10
150.251640
 20
119.958135
 30
0.0
 10
147.046752
 20
133.395449
 30
0.0
 10
144.871750
 20
142.877134
 30
0.0
 10
144.872428
 20
143.408454
 30
0.0
  0
SPLINE
  5
479
100
AcDbEntity
  8
0
 62
7
100
AcDbSpline
 70
8
 71
3
 72
8
 73
4
 74
0
 40
0
 40
0
 40
0
 40
0
 40
1
 40
1
 40
1
 40
1
 10
144.872428
 20
143.408454
 30
0.0
 10
144.872428
 20
144.249270
 30
0.0
 10
145.632876
 20
144.834023
 30
0.0
 10
146.237367
 20
144.459489
 30
0.0
  0
SPLINE
  5
47a
100
AcDbEntity
  8
0
 62
7
100
AcDbSpline
 70
8
 71
3
 72
8
 73
4
 74
0
 40
0
 40
0
 40
0
 40
0
 40
1
 40
1
 40
1
 40
1
 10
146.237367
 20
144.459489
 30
0.0
 10
146.844286
 20
144.083467
 30
0.0
 10
146.754286
 20
144.275652
 30
0.0
 10
153.684365
 20
128.555787
 30
0.0
  0
SPLINE
  5
47b
100
AcDbEntity
  8
0
 62
7
100
AcDbSpline
 70
8
 71
3
 72
8
 73
4
 74
0
 40
0
 40
0
 40
0
 40
0
 40
1
 40
1
 40
1
 40
1
 10
153.684365
 20
128.555787
 30
0.0
 10
156.934775
 20
121.182731
 30
0.0
 10
159.794138
 20
114.927981
 30
0.0
 10
160.038542
 20
114.656342
 30
0.0
  0
SPLINE
  5
47c
100
AcDbEntity
  8
0
 62
7
100
AcDbSpline
 70
8
 71
3
 72
8
 73
4
 74
0
 40
0
 40
0
 40
0
 40
0
 40
1
 40
1
 40
1
 40
1
 10
160.038542
 20
114.656342
 30
0.0
 10
160.328723
 20
114.333796
 30
0.0
 10
160.897147
 20
114.162453
 30
0.0
 10
161.677040
 20
114.162453
 30
0.0
  0
SPLINE
  5
47d
100
AcDbEntity
  8
0
 62
7
100
AcDbSpline
 70
8
 71
3
 72
8
 73
4
 74
0
 40
0
 40
0
 40
0
 40
0
 40
1
 40
1
 40
1
 40
1
 10
161.677040
 20
114.162453
 30
0.0
 10
162.623051
 20
114.162453
 30
0.0
 10
170.426851
 20
115.290465
 30
0.0
 10
176.411501
 20
116.292269
 30
0.0
  0
SPLINE
  5
47e
100
AcDbEntity
  8
0
 62
7
100
AcDbSpline
 70
8
 71
3
 72
8
 73
4
 74
0
 40
0
 40
0
 40
0
 40
0
 40
1
 40
1
 40
1
 40
1
 10
176.411501
 20
116.292269
 30
0.0
 10
177.150674
 20
116.416003
 30
0.0
 10
177.328723
 20
116.578086
 30
0.0
 10
177.328723
 20
117.127246
 30
0.0
  0
SPLINE
  5
47f
100
AcDbEntity
  8
0
 62
7
100
AcDbSpline
 70
8
 71
3
 72
8
 73
4
 74
0
 40
0
 40
0
 40
0
 40
0
 40
1
 40
1
 40
1
 40
1
 10
177.328723
 20
117.127246
 30
0.0
 10
177.328723
 20
117.690649
 30
0.0
 10
177.120959
 20
117.864055
 30
0.0
 10
176.129278
 20
118.128336
 30
0.0
  0
SPLINE
  5
480
100
AcDbEntity
  8
0
 62
7
100
AcDbSpline
 70
8
 71
3
 72
8
 73
4
 74
0
 40
0
 40
0
 40
0
 40
0
 40
1
 40
1
 40
1
 40
1
 10
176.129278
 20
118.128336
 30
0.0
 10
174.204653
 20
118.641249
 30
0.0
 10
173.152946
 20
119.174359
 30
0.0
 10
172.700665
 20
119.866300
 30
0.0
  0
SPLINE
  5
481
100
AcDbEntity
  8
0
 62
7
100
AcDbSpline
 70
8
 71
3
 72
8
 73
4
 74
0
 40
0
 40
0
 40
0
 40
0
 40
1
 40
1
 40
1
 40
1
 10
172.700665
 20
119.866300
 30
0.0
 10
172.468371
 20
120.221685
 30
0.0
 10
169.609172
 20
126.636407
 30
0.0
 10
166.346889
 20
134.121243
 30
0.0
  0
SPLINE
  5
482
100
AcDbEntity
  8
0
 62
7
100
AcDbSpline
 70
8
 71
3
 72
8
 73
4
 74
0
 40
0
 40
0
 40
0
 40
0
 40
1
 40
1
 40
1
 40
1
 10
166.346889
 20
134.121243
 30
0.0
 10
163.084606
 20
141.606075
 30
0.0
 10
160.154366
 20
148.241825
 30
0.0
 10
159.835257
 20
148.867354
 30
0.0
  0
SPLINE
  5
483
100
AcDbEntity
  8
0
 62
7
100
AcDbSpline
 70
8
 71
3
 72
8
 73
4
 74
0
 40
0
 40
0
 40
0
 40
0
 40
1
 40
1
 40
1
 40
1
 10
159.835257
 20
148.867354
 30
0.0
 10
159.149119
 20
150.212281
 30
0.0
 10
159.103088
 20
150.217818
 30
0.0
 10
155.088816
 20
149.438428
 30
0.0
  0
SPLINE
  5
484
100
AcDbEntity
  8
0
 62
7
100
AcDbSpline
 70
8
 71
3
 72
8
 73
4
 74
0
 40
0
 40
0
 40
0
 40
0
 40
1
 40
1
 40
1
 40
1
 10
155.088816
 20
149.438428
 30
0.0
 10
151.583813
 20
148.757917
 30
0.0
 10
150.164828
 20
148.902942
 30
0.0
 10
149.007858
 20
150.059912
 30
0.0
  0
SPLINE
  5
485
100
AcDbEntity
  8
0
 62
7
100
AcDbSpline
 70
8
 71
3
 72
8
 73
4
 74
0
 40
0
 40
0
 40
0
 40
0
 40
1
 40
1
 40
1
 40
1
 10
149.007858
 20
150.059912
 30
0.0
 10
147.929233
 20
151.138512
 30
0.0
 10
147.958528
 20
151.263627
 30
0.0
 10
151.502364
 20
160.720876
 30
0.0
  0
SPLINE
  5
486
100
AcDbEntity
  8
0
 62
7
100
AcDbSpline
 70
8
 71
3
 72
8
 73
4
 74
0
 40
0
 40
0
 40
0
 40
0
 40
1
 40
1
 40
1
 40
1
 10
151.502364
 20
160.720876
 30
0.0
 10
157.345634
 20
176.314441
 30
0.0
 10
157.538279
 20
176.744178
 30
0.0
 10
159.740656
 20
179.098705
 30
0.0
  0
SPLINE
  5
487
100
AcDbEntity
  8
0
 62
7
100
AcDbSpline
 70
8
 71
3
 72
8
 73
4
 74
0
 40
0
 40
0
 40
0
 40
0
 40
1
 40
1
 40
1
 40
1
 10
159.740656
 20
179.098705
 30
0.0
 10
161.025445
 20
180.472232
 30
0.0
 10
161.253509
 20
181.049120
 30
0.0
 10
160.511772
 20
181.049120
 30
0.0
  0
SPLINE
  5
488
100
AcDbEntity
  8
0
 62
7
100
AcDbSpline
 70
8
 71
3
 72
8
 73
4
 74
0
 40
0
 40
0
 40
0
 40
0
 40
1
 40
1
 40
1
 40
1
 10
160.511772
 20
181.049120
 30
0.0
 10
160.265364
 20
181.049120
 30
0.0
 10
157.588740
 20
180.477620
 30
0.0
 10
154.563770
 20
179.779120
 30
0.0
  0
SPLINE
  5
489
100
AcDbEntity
  8
0
 62
7
100
AcDbSpline
 70
8
 71
3
 72
8
 73
4
 74
0
 40
0
 40
0
 40
0
 40
0
 40
1
 40
1
 40
1
 40
1
 10
154.563770
 20
179.779120
 30
0.0
 10
151.538799
 20
179.080620
 30
0.0
 10
149.009918
 20
178.509120
 30
0.0
 10
148.944048
 20
178.509120
 30
0.0
  0
SPLINE
  5
48a
100
AcDbEntity
  8
0
 62
7
100
AcDbSpline
 70
8
 71
3
 72
8
 73
4
 74
0
 40
0
 40
0
 40
0
 40
0
 40
1
 40
1
 40
1
 40
1
 10
148.944048
 20
178.509120
 30
0.0
 10
148.878177
 20
178.509120
 30
0.0
 10
148.824273
 20
178.258383
 30
0.0
 10
148.824273
 20
177.951923
 30
0.0
  0
SPLINE
  5
48b
100
AcDbEntity
  8
0
 62
7
100
AcDbSpline
 70
8
 71
3
 72
8
 73
4
 74
0
 40
0
 40
0
 40
0
 40
0
 40
1
 40
1
 40
1
 40
1
 10
148.824273
 20
177.951923
 30
0.0
 10
148.824273
 20
177.618858
 30
0.0
 10
149.163193
 20
177.219460
 30
0.0
 10
149.666847
 20
176.959012
 30
0.0
  0
SPLINE
  5
48c
100
AcDbEntity
  8
0
 62
7
100
AcDbSpline
 70
8
 71
3
 72
8
 73
4
 74
0
 40
0
 40
0
 40
0
 40
0
 40
1
 40
1
 40
1
 40
1
 10
149.666847
 20
176.959012
 30
0.0
 10
150.655359
 20
176.447831
 30
0.0
 10
150.936508
 20
175.583407
 30
0.0
 10
150.707880
 20
173.758304
 30
0.0
  0
SPLINE
  5
48d
100
AcDbEntity
  8
0
 62
7
100
AcDbSpline
 70
8
 71
3
 72
8
 73
4
 74
0
 40
0
 40
0
 40
0
 40
0
 40
1
 40
1
 40
1
 40
1
 10
150.707880
 20
173.758304
 30
0.0
 10
150.534652
 20
172.375443
 30
0.0
 10
144.402951
 20
155.842349
 30
0.0
 10
143.620321
 20
154.647928
 30
0.0
  0
SPLINE
  5
48e
100
AcDbEntity
  8
0
 62
7
100
AcDbSpline
 70
8
 71
3
 72
8
 73
4
 74
0
 40
0
 40
0
 40
0
 40
0
 40
1
 40
1
 40
1
 40
1
 10
143.620321
 20
154.647928
 30
0.0
 10
143.090364
 20
153.839093
 30
0.0
 10
142.435128
 20
153.746299
 30
0.0
 10
142.220470
 20
154.449676
 30
0.0
  0
SPLINE
  5
48f
100
AcDbEntity
  8
0
 62
7
100
AcDbSpline
 70
8
 71
3
 72
8
 73
4
 74
0
 40
0
 40
0
 40
0
 40
0
 40
1
 40
1
 40
1
 40
1
 10
142.220470
 20
154.449676
 30
0.0
 10
141.660626
 20
156.283956
 30
0.0
 10
138.099828
 20
172.231013
 30
0.0
 10
138.099828
 20
172.904023
 30
0.0
  0
SPLINE
  5
490
100
AcDbEntity
  8
0
 62
7
100
AcDbSpline
 70
8
 71
3
 72
8
 73
4
 74
0
 40
0
 40
0
 40
0
 40
0
 40
1
 40
1
 40
1
 40
1
 10
138.099828
 20
172.904023
 30
0.0
 10
138.099828
 20
173.476770
 30
0.0
 10
138.410301
 20
174.059009
 30
0.0
 10
139.087606
 20
174.756403
 30
0.0
  0
SPLINE
  5
491
100
AcDbEntity
  8
0
 62
7
100
AcDbSpline
 70
8
 71
3
 72
8
 73
4
 74
0
 40
0
 40
0
 40
0
 40
0
 40
1
 40
1
 40
1
 40
1
 10
139.087606
 20
174.756403
 30
0.0
 10
139.630884
 20
175.315798
 30
0.0
 10
140.075384
 20
175.944502
 30
0.0
 10
140.075384
 20
176.153524
 30
0.0
  0
SPLINE
  5
492
100
AcDbEntity
  8
0
 62
7
100
AcDbSpline
 70
8
 71
3
 72
8
 73
4
 74
0
 40
0
 40
0
 40
0
 40
0
 40
1
 40
1
 40
1
 40
1
 10
140.075384
 20
176.153524
 30
0.0
 10
140.075384
 20
176.869203
 30
0.0
 10
140.029607
 20
176.860773
 30
0.0
 10
125.964273
 20
173.554421
 30
0.0
  0
SPLINE
  5
493
100
AcDbEntity
  8
0
 62
7
100
AcDbSpline
 70
8
 71
3
 72
8
 73
4
 74
0
 40
0
 40
0
 40
0
 40
0
 40
1
 40
1
 40
1
 40
1
 10
125.964273
 20
173.554421
 30
0.0
 10
122.491133
 20
172.737989
 30
0.0
 10
121.730939
 20
172.447221
 30
0.0
 10
121.730939
 20
171.935219
 30
0.0
  0
SPLINE
  5
494
100
AcDbEntity
  8
0
 62
7
100
AcDbSpline
 70
8
 71
3
 72
8
 73
4
 74
0
 40
0
 40
0
 40
0
 40
0
 40
1
 40
1
 40
1
 40
1
 10
121.730939
 20
171.935219
 30
0.0
 10
121.730939
 20
171.727808
 30
0.0
 10
122.169230
 20
171.349103
 30
0.0
 10
122.704916
 20
171.093655
 30
0.0
  0
SPLINE
  5
495
100
AcDbEntity
  8
0
 62
7
100
AcDbSpline
 70
8
 71
3
 72
8
 73
4
 74
0
 40
0
 40
0
 40
0
 40
0
 40
1
 40
1
 40
1
 40
1
 10
122.704916
 20
171.093655
 30
0.0
 10
123.240574
 20
170.838207
 30
0.0
 10
123.879582
 20
170.322867
 30
0.0
 10
124.124918
 20
169.948454
 30
0.0
  0
SPLINE
  5
496
100
AcDbEntity
  8
0
 62
7
100
AcDbSpline
 70
8
 71
3
 72
8
 73
4
 74
0
 40
0
 40
0
 40
0
 40
0
 40
1
 40
1
 40
1
 40
1
 10
124.124918
 20
169.948454
 30
0.0
 10
124.370253
 20
169.574041
 30
0.0
 10
125.582172
 20
164.965273
 30
0.0
 10
126.818108
 20
159.706745
 30
0.0
  0
SPLINE
  5
497
100
AcDbEntity
  8
0
 62
7
100
AcDbSpline
 70
8
 71
3
 72
8
 73
4
 74
0
 40
0
 40
0
 40
0
 40
0
 40
1
 40
1
 40
1
 40
1
 10
126.818108
 20
159.706745
 30
0.0
 10
128.054015
 20
154.448219
 30
0.0
 10
129.440771
 20
148.558287
 30
0.0
 10
129.899749
 20
146.618009
 30
0.0
  0
SPLINE
  5
498
100
AcDbEntity
  8
0
 62
7
100
AcDbSpline
 70
8
 71
3
 72
8
 73
4
 74
0
 40
0
 40
0
 40
0
 40
0
 40
1
 40
1
 40
1
 40
1
 10
129.899749
 20
146.618009
 30
0.0
 10
133.570726
 20
131.099566
 30
0.0
 10
137.817606
 20
112.740305
 30
0.0
 10
137.817606
 20
112.389116
 30
0.0
  0
SPLINE
  5
499
100
AcDbEntity
  8
0
 62
7
100
AcDbSpline
 70
8
 71
3
 72
8
 73
4
 74
0
 40
0
 40
0
 40
0
 40
0
 40
1
 40
1
 40
1
 40
1
 10
137.817606
 20
112.389116
 30
0.0
 10
137.817606
 20
112.153869
 30
0.0
 10
137.367574
 20
111.292648
 30
0.0
 10
136.817523
 20
110.475288
 30
0.0
  0
SPLINE
  5
49a
100
AcDbEntity
  8
0
 62
7
100
AcDbSpline
 70
8
 71
3
 72
8
 73
4
 74
0
 40
0
 40
0
 40
0
 40
0
 40
1
 40
1
 40
1
 40
1
 10
136.817523
 20
110.475288
 30
0.0
 10
135.741523
 20
108.876341
 30
0.0
 10
135.724618
 20
108.235787
 30
0.0
 10
136.758426
 20
108.235787
 30
0.0
  0
SPLINE
  5
49b
100
AcDbEntity
  8
0
 62
7
100
AcDbSpline
 70
8
 71
3
 72
8
 73
4
 74
0
 40
0
 40
0
 40
0
 40
0
 40
1
 40
1
 40
1
 40
1
 10
136.758426
 20
108.235787
 30
0.0
 10
137.116961
 20
108.235787
 30
0.0
 10
140.200690
 20
109.046408
 30
0.0
 10
143.611177
 20
110.037166
 30
0.0
  0
LWPOLYLINE
  5
49c
100
AcDbEntity
  8
0
 62
7
100
AcDbPolyline
 90
2
 70
1
 10
316.864520
 20
103.327093
 30
0.0
 10
316.864520
 20
103.327093
 30
0.0
  0
SPLINE
  5
49d
100
AcDbEntity
  8
0
 62
7
100
AcDbSpline
 70
8
 71
3
 72
8
 73
4
 74
0
 40
0
 40
0
 40
0
 40
0
 40
1
 40
1
 40
1
 40
1
 10
294.622615
 20
111.302001
 30
0.0
 10
294.660687
 20
112.058887
 30
0.0
 10
295.646658
 20
115.605504
 30
0.0
 10
304.793819
 20
147.888009
 30
0.0
  0
SPLINE
  5
49e
100
AcDbEntity
  8
0
 62
7
100
AcDbSpline
 70
8
 71
3
 72
8
 73
4
 74
0
 40
0
 40
0
 40
0
 40
0
 40
1
 40
1
 40
1
 40
1
 10
304.793819
 20
147.888009
 30
0.0
 10
307.036893
 20
155.804342
 30
0.0
 10
309.329526
 20
163.898461
 30
0.0
 10
309.888523
 20
165.874943
 30
0.0
  0
SPLINE
  5
49f
100
AcDbEntity
  8
0
 62
7
100
AcDbSpline
 70
8
 71
3
 72
8
 73
4
 74
0
 40
0
 40
0
 40
0
 40
0
 40
1
 40
1
 40
1
 40
1
 10
309.888523
 20
165.874943
 30
0.0
 10
311.025738
 20
169.895797
 30
0.0
 10
311.574124
 20
170.986662
 30
0.0
 10
312.807745
 20
171.681738
 30
0.0
  0
SPLINE
  5
4a0
100
AcDbEntity
  8
0
 62
7
100
AcDbSpline
 70
8
 71
3
 72
8
 73
4
 74
0
 40
0
 40
0
 40
0
 40
0
 40
1
 40
1
 40
1
 40
1
 10
312.807745
 20
171.681738
 30
0.0
 10
314.389714
 20
172.573078
 30
0.0
 10
313.863228
 20
173.119209
 30
0.0
 10
310.255384
 20
174.329316
 30
0.0
  0
SPLINE
  5
4a1
100
AcDbEntity
  8
0
 62
7
100
AcDbSpline
 70
8
 71
3
 72
8
 73
4
 74
0
 40
0
 40
0
 40
0
 40
0
 40
1
 40
1
 40
1
 40
1
 10
310.255384
 20
174.329316
 30
0.0
 10
305.255394
 20
176.006365
 30
0.0
 10
304.448323
 20
176.217464
 30
0.0
 10
304.028546
 20
175.958032
 30
0.0
  0
SPLINE
  5
4a2
100
AcDbEntity
  8
0
 62
7
100
AcDbSpline
 70
8
 71
3
 72
8
 73
4
 74
0
 40
0
 40
0
 40
0
 40
0
 40
1
 40
1
 40
1
 40
1
 10
304.028546
 20
175.958032
 30
0.0
 10
303.709126
 20
175.760623
 30
0.0
 10
303.725919
 20
175.548104
 30
0.0
 10
304.127380
 20
174.706224
 30
0.0
  0
SPLINE
  5
4a3
100
AcDbEntity
  8
0
 62
7
100
AcDbSpline
 70
8
 71
3
 72
8
 73
4
 74
0
 40
0
 40
0
 40
0
 40
0
 40
1
 40
1
 40
1
 40
1
 10
304.127380
 20
174.706224
 30
0.0
 10
304.393346
 20
174.148507
 30
0.0
 10
304.610939
 20
173.216979
 30
0.0
 10
304.610939
 20
172.636166
 30
0.0
  0
SPLINE
  5
4a4
100
AcDbEntity
  8
0
 62
7
100
AcDbSpline
 70
8
 71
3
 72
8
 73
4
 74
0
 40
0
 40
0
 40
0
 40
0
 40
1
 40
1
 40
1
 40
1
 10
304.610939
 20
172.636166
 30
0.0
 10
304.610939
 20
171.230996
 30
0.0
 10
295.796067
 20
140.340091
 30
0.0
 10
295.352950
 20
140.192385
 30
0.0
  0
SPLINE
  5
4a5
100
AcDbEntity
  8
0
 62
7
100
AcDbSpline
 70
8
 71
3
 72
8
 73
4
 74
0
 40
0
 40
0
 40
0
 40
0
 40
1
 40
1
 40
1
 40
1
 10
295.352950
 20
140.192385
 30
0.0
 10
294.554571
 20
139.926252
 30
0.0
 10
294.300741
 20
140.964988
 30
0.0
 10
290.920960
 20
158.330231
 30
0.0
  0
SPLINE
  5
4a6
100
AcDbEntity
  8
0
 62
7
100
AcDbSpline
 70
8
 71
3
 72
8
 73
4
 74
0
 40
0
 40
0
 40
0
 40
0
 40
1
 40
1
 40
1
 40
1
 10
290.920960
 20
158.330231
 30
0.0
 10
287.346249
 20
176.697030
 30
0.0
 10
286.781607
 20
179.478694
 30
0.0
 10
286.533251
 20
179.945992
 30
0.0
  0
SPLINE
  5
4a7
100
AcDbEntity
  8
0
 62
7
100
AcDbSpline
 70
8
 71
3
 72
8
 73
4
 74
0
 40
0
 40
0
 40
0
 40
0
 40
1
 40
1
 40
1
 40
1
 10
286.533251
 20
179.945992
 30
0.0
 10
286.282525
 20
180.417789
 30
0.0
 10
277.776799
 20
182.742453
 30
0.0
 10
276.301285
 20
182.742453
 30
0.0
  0
SPLINE
  5
4a8
100
AcDbEntity
  8
0
 62
7
100
AcDbSpline
 70
8
 71
3
 72
8
 73
4
 74
0
 40
0
 40
0
 40
0
 40
0
 40
1
 40
1
 40
1
 40
1
 10
276.301285
 20
182.742453
 30
0.0
 10
275.106751
 20
182.742453
 30
0.0
 10
275.074719
 20
182.036472
 30
0.0
 10
276.203466
 20
180.587670
 30
0.0
  0
SPLINE
  5
4a9
100
AcDbEntity
  8
0
 62
7
100
AcDbSpline
 70
8
 71
3
 72
8
 73
4
 74
0
 40
0
 40
0
 40
0
 40
0
 40
1
 40
1
 40
1
 40
1
 10
276.203466
 20
180.587670
 30
0.0
 10
277.904758
 20
178.403995
 30
0.0
 10
277.951410
 20
177.972635
 30
0.0
 10
276.983642
 20
173.374171
 30
0.0
  0
SPLINE
  5
4aa
100
AcDbEntity
  8
0
 62
7
100
AcDbSpline
 70
8
 71
3
 72
8
 73
4
 74
0
 40
0
 40
0
 40
0
 40
0
 40
1
 40
1
 40
1
 40
1
 10
276.983642
 20
173.374171
 30
0.0
 10
276.516338
 20
171.153669
 30
0.0
 10
275.550207
 20
166.542898
 30
0.0
 10
274.836664
 20
163.128009
 30
0.0
  0
SPLINE
  5
4ab
100
AcDbEntity
  8
0
 62
7
100
AcDbSpline
 70
8
 71
3
 72
8
 73
4
 74
0
 40
0
 40
0
 40
0
 40
0
 40
1
 40
1
 40
1
 40
1
 10
274.836664
 20
163.128009
 30
0.0
 10
274.123122
 20
159.713120
 30
0.0
 10
273.043537
 20
154.569620
 30
0.0
 10
272.437606
 20
151.698009
 30
0.0
  0
SPLINE
  5
4ac
100
AcDbEntity
  8
0
 62
7
100
AcDbSpline
 70
8
 71
3
 72
8
 73
4
 74
0
 40
0
 40
0
 40
0
 40
0
 40
1
 40
1
 40
1
 40
1
 10
272.437606
 20
151.698009
 30
0.0
 10
271.831675
 20
148.826398
 30
0.0
 10
270.183695
 20
140.952398
 30
0.0
 10
268.775434
 20
134.200231
 30
0.0
  0
SPLINE
  5
4ad
100
AcDbEntity
  8
0
 62
7
100
AcDbSpline
 70
8
 71
3
 72
8
 73
4
 74
0
 40
0
 40
0
 40
0
 40
0
 40
1
 40
1
 40
1
 40
1
 10
268.775434
 20
134.200231
 30
0.0
 10
265.931960
 20
120.566626
 30
0.0
 10
265.858216
 20
120.278917
 30
0.0
 10
264.917823
 20
119.150243
 30
0.0
  0
SPLINE
  5
4ae
100
AcDbEntity
  8
0
 62
7
100
AcDbSpline
 70
8
 71
3
 72
8
 73
4
 74
0
 40
0
 40
0
 40
0
 40
0
 40
1
 40
1
 40
1
 40
1
 10
264.917823
 20
119.150243
 30
0.0
 10
264.221412
 20
118.314368
 30
0.0
 10
264.075418
 20
117.692289
 30
0.0
 10
264.512298
 20
117.422284
 30
0.0
  0
SPLINE
  5
4af
100
AcDbEntity
  8
0
 62
7
100
AcDbSpline
 70
8
 71
3
 72
8
 73
4
 74
0
 40
0
 40
0
 40
0
 40
0
 40
1
 40
1
 40
1
 40
1
 10
264.512298
 20
117.422284
 30
0.0
 10
264.654820
 20
117.334199
 30
0.0
 10
266.764036
 20
116.932222
 30
0.0
 10
269.199473
 20
116.528997
 30
0.0
  0
SPLINE
  5
4b0
100
AcDbEntity
  8
0
 62
7
100
AcDbSpline
 70
8
 71
3
 72
8
 73
4
 74
0
 40
0
 40
0
 40
0
 40
0
 40
1
 40
1
 40
1
 40
1
 10
269.199473
 20
116.528997
 30
0.0
 10
273.033208
 20
115.894259
 30
0.0
 10
273.681529
 20
115.849871
 30
0.0
 10
274.029932
 20
116.198277
 30
0.0
  0
SPLINE
  5
4b1
100
AcDbEntity
  8
0
 62
7
100
AcDbSpline
 70
8
 71
3
 72
8
 73
4
 74
0
 40
0
 40
0
 40
0
 40
0
 40
1
 40
1
 40
1
 40
1
 10
274.029932
 20
116.198277
 30
0.0
 10
274.378335
 20
116.546681
 30
0.0
 10
274.320536
 20
116.741389
 30
0.0
 10
273.599261
 20
117.648993
 30
0.0
  0
SPLINE
  5
4b2
100
AcDbEntity
  8
0
 62
7
100
AcDbSpline
 70
8
 71
3
 72
8
 73
4
 74
0
 40
0
 40
0
 40
0
 40
0
 40
1
 40
1
 40
1
 40
1
 10
273.599261
 20
117.648993
 30
0.0
 10
272.635190
 20
118.862128
 30
0.0
 10
272.315206
 20
120.322583
 30
0.0
 10
272.590570
 20
122.252780
 30
0.0
  0
SPLINE
  5
4b3
100
AcDbEntity
  8
0
 62
7
100
AcDbSpline
 70
8
 71
3
 72
8
 73
4
 74
0
 40
0
 40
0
 40
0
 40
0
 40
1
 40
1
 40
1
 40
1
 10
272.590570
 20
122.252780
 30
0.0
 10
272.961269
 20
124.851355
 30
0.0
 10
278.570831
 20
151.716418
 30
0.0
 10
278.788058
 20
151.933659
 30
0.0
  0
SPLINE
  5
4b4
100
AcDbEntity
  8
0
 62
7
100
AcDbSpline
 70
8
 71
3
 72
8
 73
4
 74
0
 40
0
 40
0
 40
0
 40
0
 40
1
 40
1
 40
1
 40
1
 10
278.788058
 20
151.933659
 30
0.0
 10
279.190055
 20
152.335631
 30
0.0
 10
279.527706
 20
151.158313
 30
0.0
 10
280.312650
 20
146.618009
 30
0.0
  0
SPLINE
  5
4b5
100
AcDbEntity
  8
0
 62
7
100
AcDbSpline
 70
8
 71
3
 72
8
 73
4
 74
0
 40
0
 40
0
 40
0
 40
0
 40
1
 40
1
 40
1
 40
1
 10
280.312650
 20
146.618009
 30
0.0
 10
282.231846
 20
135.516978
 30
0.0
 10
284.043572
 20
124.968262
 30
0.0
 10
285.014331
 20
119.242453
 30
0.0
  0
SPLINE
  5
4b6
100
AcDbEntity
  8
0
 62
7
100
AcDbSpline
 70
8
 71
3
 72
8
 73
4
 74
0
 40
0
 40
0
 40
0
 40
0
 40
1
 40
1
 40
1
 40
1
 10
285.014331
 20
119.242453
 30
0.0
 10
285.623903
 20
115.647134
 30
0.0
 10
286.207482
 20
113.002179
 30
0.0
 10
286.446524
 20
112.751342
 30
0.0
  0
SPLINE
  5
4b7
100
AcDbEntity
  8
0
 62
7
100
AcDbSpline
 70
8
 71
3
 72
8
 73
4
 74
0
 40
0
 40
0
 40
0
 40
0
 40
1
 40
1
 40
1
 40
1
 10
286.446524
 20
112.751342
 30
0.0
 10
287.012916
 20
112.156996
 30
0.0
 10
293.960578
 20
109.959758
 30
0.0
 10
294.305256
 20
110.265975
 30
0.0
  0
SPLINE
  5
4b8
100
AcDbEntity
  8
0
 62
7
100
AcDbSpline
 70
8
 71
3
 72
8
 73
4
 74
0
 40
0
 40
0
 40
0
 40
0
 40
1
 40
1
 40
1
 40
1
 10
294.305256
 20
110.265975
 30
0.0
 10
294.457967
 20
110.401645
 30
0.0
 10
294.600771
 20
110.867856
 30
0.0
 10
294.622615
 20
111.302001
 30
0.0
  0
LWPOLYLINE
  5
4b9
100
AcDbEntity
  8
0
 62
7
100
AcDbPolyline
 90
2
 70
1
 10
143.611177
 20
110.037166
 30
0.0
 10
143.611177
 20
110.037166
 30
0.0
  0
SPLINE
  5
4ba
100
AcDbEntity
  8
0
 62
7
100
AcDbSpline
 70
8
 71
3
 72
8
 73
4
 74
0
 40
0
 40
0
 40
0
 40
0
 40
1
 40
1
 40
1
 40
1
 10
263.020612
 20
117.968285
 30
0.0
 10
263.109089
 20
118.198827
 30
0.0
 10
262.852182
 20
118.778771
 30
0.0
 10
262.449733
 20
119.257053
 30
0.0
  0
SPLINE
  5
4bb
100
AcDbEntity
  8
0
 62
7
100
AcDbSpline
 70
8
 71
3
 72
8
 73
4
 74
0
 40
0
 40
0
 40
0
 40
0
 40
1
 40
1
 40
1
 40
1
 10
262.449733
 20
119.257053
 30
0.0
 10
261.118660
 20
120.838951
 30
0.0
 10
260.975235
 20
121.692233
 30
0.0
 10
259.890712
 20
134.482453
 30
0.0
  0
SPLINE
  5
4bc
100
AcDbEntity
  8
0
 62
7
100
AcDbSpline
 70
8
 71
3
 72
8
 73
4
 74
0
 40
0
 40
0
 40
0
 40
0
 40
1
 40
1
 40
1
 40
1
 10
259.890712
 20
134.482453
 30
0.0
 10
259.660362
 20
137.198842
 30
0.0
 10
259.274846
 20
141.643842
 30
0.0
 10
259.034026
 20
144.360231
 30
0.0
  0
SPLINE
  5
4bd
100
AcDbEntity
  8
0
 62
7
100
AcDbSpline
 70
8
 71
3
 72
8
 73
4
 74
0
 40
0
 40
0
 40
0
 40
0
 40
1
 40
1
 40
1
 40
1
 10
259.034026
 20
144.360231
 30
0.0
 10
258.793178
 20
147.076620
 30
0.0
 10
258.411557
 20
151.458120
 30
0.0
 10
258.185948
 20
154.096898
 30
0.0
  0
SPLINE
  5
4be
100
AcDbEntity
  8
0
 62
7
100
AcDbSpline
 70
8
 71
3
 72
8
 73
4
 74
0
 40
0
 40
0
 40
0
 40
0
 40
1
 40
1
 40
1
 40
1
 10
258.185948
 20
154.096898
 30
0.0
 10
257.960368
 20
156.735676
 30
0.0
 10
257.395754
 20
163.276176
 30
0.0
 10
256.931245
 20
168.631342
 30
0.0
  0
SPLINE
  5
4bf
100
AcDbEntity
  8
0
 62
7
100
AcDbSpline
 70
8
 71
3
 72
8
 73
4
 74
0
 40
0
 40
0
 40
0
 40
0
 40
1
 40
1
 40
1
 40
1
 10
256.931245
 20
168.631342
 30
0.0
 10
256.466735
 20
173.986509
 30
0.0
 10
256.006431
 20
179.320509
 30
0.0
 10
255.908387
 20
180.484676
 30
0.0
  0
SPLINE
  5
4c0
100
AcDbEntity
  8
0
 62
7
100
AcDbSpline
 70
8
 71
3
 72
8
 73
4
 74
0
 40
0
 40
0
 40
0
 40
0
 40
1
 40
1
 40
1
 40
1
 10
255.908387
 20
180.484676
 30
0.0
 10
255.644594
 20
183.616298
 30
0.0
 10
255.317921
 20
184.687018
 30
0.0
 10
254.576947
 20
184.848585
 30
0.0
  0
SPLINE
  5
4c1
100
AcDbEntity
  8
0
 62
7
100
AcDbSpline
 70
8
 71
3
 72
8
 73
4
 74
0
 40
0
 40
0
 40
0
 40
0
 40
1
 40
1
 40
1
 40
1
 10
254.576947
 20
184.848585
 30
0.0
 10
253.891006
 20
184.998146
 30
0.0
 10
242.669596
 20
186.129120
 30
0.0
 10
241.871585
 20
186.129120
 30
0.0
  0
SPLINE
  5
4c2
100
AcDbEntity
  8
0
 62
7
100
AcDbSpline
 70
8
 71
3
 72
8
 73
4
 74
0
 40
0
 40
0
 40
0
 40
0
 40
1
 40
1
 40
1
 40
1
 10
241.871585
 20
186.129120
 30
0.0
 10
241.028333
 20
186.129120
 30
0.0
 10
241.024466
 20
185.358188
 30
0.0
 10
241.862271
 20
184.259779
 30
0.0
  0
SPLINE
  5
4c3
100
AcDbEntity
  8
0
 62
7
100
AcDbSpline
 70
8
 71
3
 72
8
 73
4
 74
0
 40
0
 40
0
 40
0
 40
0
 40
1
 40
1
 40
1
 40
1
 10
241.862271
 20
184.259779
 30
0.0
 10
242.460244
 20
183.475698
 30
0.0
 10
242.655739
 20
182.917821
 30
0.0
 10
242.633500
 20
182.058747
 30
0.0
  0
SPLINE
  5
4c4
100
AcDbEntity
  8
0
 62
7
100
AcDbSpline
 70
8
 71
3
 72
8
 73
4
 74
0
 40
0
 40
0
 40
0
 40
0
 40
1
 40
1
 40
1
 40
1
 10
242.633500
 20
182.058747
 30
0.0
 10
242.616849
 20
181.417138
 30
0.0
 10
240.910590
 20
175.726107
 30
0.0
 10
238.776877
 20
169.195787
 30
0.0
  0
SPLINE
  5
4c5
100
AcDbEntity
  8
0
 62
7
100
AcDbSpline
 70
8
 71
3
 72
8
 73
4
 74
0
 40
0
 40
0
 40
0
 40
0
 40
1
 40
1
 40
1
 40
1
 10
238.776877
 20
169.195787
 30
0.0
 10
236.672120
 20
162.754064
 30
0.0
 10
233.407148
 20
152.721064
 30
0.0
 10
231.521395
 20
146.900231
 30
0.0
  0
SPLINE
  5
4c6
100
AcDbEntity
  8
0
 62
7
100
AcDbSpline
 70
8
 71
3
 72
8
 73
4
 74
0
 40
0
 40
0
 40
0
 40
0
 40
1
 40
1
 40
1
 40
1
 10
231.521395
 20
146.900231
 30
0.0
 10
229.635634
 20
141.079398
 30
0.0
 10
227.451717
 20
134.348398
 30
0.0
 10
226.668245
 20
131.942453
 30
0.0
  0
SPLINE
  5
4c7
100
AcDbEntity
  8
0
 62
7
100
AcDbSpline
 70
8
 71
3
 72
8
 73
4
 74
0
 40
0
 40
0
 40
0
 40
0
 40
1
 40
1
 40
1
 40
1
 10
226.668245
 20
131.942453
 30
0.0
 10
224.718301
 20
125.954417
 30
0.0
 10
223.678358
 20
123.840347
 30
0.0
 10
221.893144
 20
122.235285
 30
0.0
  0
SPLINE
  5
4c8
100
AcDbEntity
  8
0
 62
7
100
AcDbSpline
 70
8
 71
3
 72
8
 73
4
 74
0
 40
0
 40
0
 40
0
 40
0
 40
1
 40
1
 40
1
 40
1
 10
221.893144
 20
122.235285
 30
0.0
 10
219.548301
 20
120.127070
 30
0.0
 10
219.701816
 20
120.065284
 30
0.0
 10
227.063723
 20
120.154257
 30
0.0
  0
SPLINE
  5
4c9
100
AcDbEntity
  8
0
 62
7
100
AcDbSpline
 70
8
 71
3
 72
8
 73
4
 74
0
 40
0
 40
0
 40
0
 40
0
 40
1
 40
1
 40
1
 40
1
 10
227.063723
 20
120.154257
 30
0.0
 10
232.403932
 20
120.218798
 30
0.0
 10
233.349941
 20
120.293367
 30
0.0
 10
233.349941
 20
120.649763
 30
0.0
  0
SPLINE
  5
4ca
100
AcDbEntity
  8
0
 62
7
100
AcDbSpline
 70
8
 71
3
 72
8
 73
4
 74
0
 40
0
 40
0
 40
0
 40
0
 40
1
 40
1
 40
1
 40
1
 10
233.349941
 20
120.649763
 30
0.0
 10
233.349941
 20
120.880502
 30
0.0
 10
233.006731
 20
121.233785
 30
0.0
 10
232.587264
 20
121.434832
 30
0.0
  0
SPLINE
  5
4cb
100
AcDbEntity
  8
0
 62
7
100
AcDbSpline
 70
8
 71
3
 72
8
 73
4
 74
0
 40
0
 40
0
 40
0
 40
0
 40
1
 40
1
 40
1
 40
1
 10
232.587264
 20
121.434832
 30
0.0
 10
231.509065
 20
121.951550
 30
0.0
 10
230.668723
 20
123.124589
 30
0.0
 10
230.668723
 20
124.112793
 30
0.0
  0
SPLINE
  5
4cc
100
AcDbEntity
  8
0
 62
7
100
AcDbSpline
 70
8
 71
3
 72
8
 73
4
 74
0
 40
0
 40
0
 40
0
 40
0
 40
1
 40
1
 40
1
 40
1
 10
230.668723
 20
124.112793
 30
0.0
 10
230.668723
 20
124.576504
 30
0.0
 10
231.565760
 20
127.670879
 30
0.0
 10
232.662166
 20
130.989180
 30
0.0
  0
SPLINE
  5
4cd
100
AcDbEntity
  8
0
 62
7
100
AcDbSpline
 70
8
 71
3
 72
8
 73
4
 74
0
 40
0
 40
0
 40
0
 40
0
 40
1
 40
1
 40
1
 40
1
 10
232.662166
 20
130.989180
 30
0.0
 10
234.446657
 20
136.390182
 30
0.0
 10
234.720243
 20
137.022944
 30
0.0
 10
235.272693
 20
137.027133
 30
0.0
  0
SPLINE
  5
4ce
100
AcDbEntity
  8
0
 62
7
100
AcDbSpline
 70
8
 71
3
 72
8
 73
4
 74
0
 40
0
 40
0
 40
0
 40
0
 40
1
 40
1
 40
1
 40
1
 10
235.272693
 20
137.027133
 30
0.0
 10
237.156244
 20
137.041413
 30
0.0
 10
245.536466
 20
136.056531
 30
0.0
 10
245.818886
 20
135.787694
 30
0.0
  0
SPLINE
  5
4cf
100
AcDbEntity
  8
0
 62
7
100
AcDbSpline
 70
8
 71
3
 72
8
 73
4
 74
0
 40
0
 40
0
 40
0
 40
0
 40
1
 40
1
 40
1
 40
1
 10
245.818886
 20
135.787694
 30
0.0
 10
246.225935
 20
135.400234
 30
0.0
 10
247.160232
 20
124.851346
 30
0.0
 10
246.966288
 20
122.832879
 30
0.0
  0
SPLINE
  5
4d0
100
AcDbEntity
  8
0
 62
7
100
AcDbSpline
 70
8
 71
3
 72
8
 73
4
 74
0
 40
0
 40
0
 40
0
 40
0
 40
1
 40
1
 40
1
 40
1
 10
246.966288
 20
122.832879
 30
0.0
 10
246.854726
 20
121.671828
 30
0.0
 10
246.652711
 20
121.256075
 30
0.0
 10
245.816882
 20
120.467541
 30
0.0
  0
SPLINE
  5
4d1
100
AcDbEntity
  8
0
 62
7
100
AcDbSpline
 70
8
 71
3
 72
8
 73
4
 74
0
 40
0
 40
0
 40
0
 40
0
 40
1
 40
1
 40
1
 40
1
 10
245.816882
 20
120.467541
 30
0.0
 10
245.203726
 20
119.889039
 30
0.0
 10
244.866019
 20
119.346232
 30
0.0
 10
244.962652
 20
119.094428
 30
0.0
  0
SPLINE
  5
4d2
100
AcDbEntity
  8
0
 62
7
100
AcDbSpline
 70
8
 71
3
 72
8
 73
4
 74
0
 40
0
 40
0
 40
0
 40
0
 40
1
 40
1
 40
1
 40
1
 10
244.962652
 20
119.094428
 30
0.0
 10
245.050536
 20
118.865399
 30
0.0
 10
245.140593
 20
118.666491
 30
0.0
 10
245.162804
 20
118.652414
 30
0.0
  0
SPLINE
  5
4d3
100
AcDbEntity
  8
0
 62
7
100
AcDbSpline
 70
8
 71
3
 72
8
 73
4
 74
0
 40
0
 40
0
 40
0
 40
0
 40
1
 40
1
 40
1
 40
1
 10
245.162804
 20
118.652414
 30
0.0
 10
245.353755
 20
118.531324
 30
0.0
 10
258.464022
 20
117.610870
 30
0.0
 10
260.381468
 20
117.583935
 30
0.0
  0
SPLINE
  5
4d4
100
AcDbEntity
  8
0
 62
7
100
AcDbSpline
 70
8
 71
3
 72
8
 73
4
 74
0
 40
0
 40
0
 40
0
 40
0
 40
1
 40
1
 40
1
 40
1
 10
260.381468
 20
117.583935
 30
0.0
 10
262.335998
 20
117.556475
 30
0.0
 10
262.893754
 20
117.637707
 30
0.0
 10
263.020612
 20
117.968285
 30
0.0
  0
LWPOLYLINE
  5
4d5
100
AcDbEntity
  8
0
 62
7
100
AcDbPolyline
 90
2
 70
1
 10
294.622615
 20
111.302001
 30
0.0
 10
294.622615
 20
111.302001
 30
0.0
  0
SPLINE
  5
4d6
100
AcDbEntity
  8
0
 62
7
100
AcDbSpline
 70
8
 71
3
 72
8
 73
4
 74
0
 40
0
 40
0
 40
0
 40
0
 40
1
 40
1
 40
1
 40
1
 10
240.148082
 20
141.708056
 30
0.0
 10
238.299103
 20
141.923448
 30
0.0
 10
236.717614
 20
142.168372
 30
0.0
 10
236.633653
 20
142.252333
 30
0.0
  0
SPLINE
  5
4d7
100
AcDbEntity
  8
0
 62
7
100
AcDbSpline
 70
8
 71
3
 72
8
 73
4
 74
0
 40
0
 40
0
 40
0
 40
0
 40
1
 40
1
 40
1
 40
1
 10
236.633653
 20
142.252333
 30
0.0
 10
236.413830
 20
142.472159
 30
0.0
 10
237.044851
 20
144.629454
 30
0.0
 10
239.923715
 20
153.500257
 30
0.0
  0
SPLINE
  5
4d8
100
AcDbEntity
  8
0
 62
7
100
AcDbSpline
 70
8
 71
3
 72
8
 73
4
 74
0
 40
0
 40
0
 40
0
 40
0
 40
1
 40
1
 40
1
 40
1
 10
239.923715
 20
153.500257
 30
0.0
 10
241.328476
 20
157.828770
 30
0.0
 10
242.665871
 20
161.558337
 30
0.0
 10
242.895713
 20
161.788181
 30
0.0
  0
SPLINE
  5
4d9
100
AcDbEntity
  8
0
 62
7
100
AcDbSpline
 70
8
 71
3
 72
8
 73
4
 74
0
 40
0
 40
0
 40
0
 40
0
 40
1
 40
1
 40
1
 40
1
 10
242.895713
 20
161.788181
 30
0.0
 10
243.264775
 20
162.157235
 30
0.0
 10
243.348538
 20
162.140849
 30
0.0
 10
243.612275
 20
161.648010
 30
0.0
  0
SPLINE
  5
4da
100
AcDbEntity
  8
0
 62
7
100
AcDbSpline
 70
8
 71
3
 72
8
 73
4
 74
0
 40
0
 40
0
 40
0
 40
0
 40
1
 40
1
 40
1
 40
1
 10
243.612275
 20
161.648010
 30
0.0
 10
243.875250
 20
161.156636
 30
0.0
 10
245.285570
 20
146.544182
 30
0.0
 10
245.430604
 20
142.808009
 30
0.0
  0
LWPOLYLINE
  5
4db
100
AcDbEntity
  8
0
 62
7
100
AcDbPolyline
 90
2
 70
1
 10
263.020612
 20
117.968285
 30
0.0
 10
263.020612
 20
117.968285
 30
0.0
  0
SPLINE
  5
4dc
100
AcDbEntity
  8
0
 62
7
100
AcDbSpline
 70
8
 71
3
 72
8
 73
4
 74
0
 40
0
 40
0
 40
0
 40
0
 40
1
 40
1
 40
1
 40
1
 10
244.497606
 20
141.356667
 30
0.0
 10
243.954328
 20
141.334541
 30
0.0
 10
241.997032
 20
141.492664
 30
0.0
 10
240.148082
 20
141.708056
 30
0.0
  0
LWPOLYLINE
  5
4dd
100
AcDbEntity
  8
0
 62
7
100
AcDbPolyline
 90
3
 70
1
 10
245.430604
 20
142.808009
 30
0.0
 10
245.485384
 20
141.396898
 30
0.0
 10
244.497606
 20
141.356667
 30
0.0
  0
SPLINE
  5
4de
100
AcDbEntity
  8
0
 62
7
100
AcDbSpline
 70
8
 71
3
 72
8
 73
4
 74
0
 40
0
 40
0
 40
0
 40
0
 40
1
 40
1
 40
1
 40
1
 10
195.108723
 20
118.980218
 30
0.0
 10
203.656918
 20
119.349478
 30
0.0
 10
205.762778
 20
119.690092
 30
0.0
 10
208.796501
 20
121.194167
 30
0.0
  0
SPLINE
  5
4df
100
AcDbEntity
  8
0
 62
7
100
AcDbSpline
 70
8
 71
3
 72
8
 73
4
 74
0
 40
0
 40
0
 40
0
 40
0
 40
1
 40
1
 40
1
 40
1
 10
208.796501
 20
121.194167
 30
0.0
 10
218.420323
 20
125.965514
 30
0.0
 10
224.777193
 20
139.369772
 30
0.0
 10
226.140320
 20
157.765787
 30
0.0
  0
SPLINE
  5
4e0
100
AcDbEntity
  8
0
 62
7
100
AcDbSpline
 70
8
 71
3
 72
8
 73
4
 74
0
 40
0
 40
0
 40
0
 40
0
 40
1
 40
1
 40
1
 40
1
 10
226.140320
 20
157.765787
 30
0.0
 10
226.944724
 20
168.621577
 30
0.0
 10
226.183077
 20
178.422661
 30
0.0
 10
223.995649
 20
185.363968
 30
0.0
  0
SPLINE
  5
4e1
100
AcDbEntity
  8
0
 62
7
100
AcDbSpline
 70
8
 71
3
 72
8
 73
4
 74
0
 40
0
 40
0
 40
0
 40
0
 40
1
 40
1
 40
1
 40
1
 10
223.995649
 20
185.363968
 30
0.0
 10
220.206728
 20
197.387252
 30
0.0
 10
211.389471
 20
205.401522
 30
0.0
 10
200.931529
 20
206.327643
 30
0.0
  0
SPLINE
  5
4e2
100
AcDbEntity
  8
0
 62
7
100
AcDbSpline
 70
8
 71
3
 72
8
 73
4
 74
0
 40
0
 40
0
 40
0
 40
0
 40
1
 40
1
 40
1
 40
1
 10
200.931529
 20
206.327643
 30
0.0
 10
198.433360
 20
206.548871
 30
0.0
 10
184.344733
 20
205.965131
 30
0.0
 10
182.902612
 20
205.580640
 30
0.0
  0
SPLINE
  5
4e3
100
AcDbEntity
  8
0
 62
7
100
AcDbSpline
 70
8
 71
3
 72
8
 73
4
 74
0
 40
0
 40
0
 40
0
 40
0
 40
1
 40
1
 40
1
 40
1
 10
182.902612
 20
205.580640
 30
0.0
 10
181.579105
 20
205.227775
 30
0.0
 10
181.519980
 20
204.573595
 30
0.0
 10
182.715335
 20
203.508528
 30
0.0
  0
SPLINE
  5
4e4
100
AcDbEntity
  8
0
 62
7
100
AcDbSpline
 70
8
 71
3
 72
8
 73
4
 74
0
 40
0
 40
0
 40
0
 40
0
 40
1
 40
1
 40
1
 40
1
 10
182.715335
 20
203.508528
 30
0.0
 10
184.417290
 20
201.992080
 30
0.0
 10
184.526992
 20
201.335727
 30
0.0
 10
184.959746
 20
190.080231
 30
0.0
  0
SPLINE
  5
4e5
100
AcDbEntity
  8
0
 62
7
100
AcDbSpline
 70
8
 71
3
 72
8
 73
4
 74
0
 40
0
 40
0
 40
0
 40
0
 40
1
 40
1
 40
1
 40
1
 10
184.959746
 20
190.080231
 30
0.0
 10
185.287753
 20
181.549136
 30
0.0
 10
185.906283
 20
165.837737
 30
0.0
 10
186.498563
 20
150.992453
 30
0.0
  0
SPLINE
  5
4e6
100
AcDbEntity
  8
0
 62
7
100
AcDbSpline
 70
8
 71
3
 72
8
 73
4
 74
0
 40
0
 40
0
 40
0
 40
0
 40
1
 40
1
 40
1
 40
1
 10
186.498563
 20
150.992453
 30
0.0
 10
187.459310
 20
126.911707
 30
0.0
 10
187.564285
 20
123.533047
 30
0.0
 10
187.375148
 20
122.779471
 30
0.0
  0
SPLINE
  5
4e7
100
AcDbEntity
  8
0
 62
7
100
AcDbSpline
 70
8
 71
3
 72
8
 73
4
 74
0
 40
0
 40
0
 40
0
 40
0
 40
1
 40
1
 40
1
 40
1
 10
187.375148
 20
122.779471
 30
0.0
 10
187.265378
 20
122.342108
 30
0.0
 10
186.600242
 20
121.425112
 30
0.0
 10
185.897068
 20
120.741705
 30
0.0
  0
SPLINE
  5
4e8
100
AcDbEntity
  8
0
 62
7
100
AcDbSpline
 70
8
 71
3
 72
8
 73
4
 74
0
 40
0
 40
0
 40
0
 40
0
 40
1
 40
1
 40
1
 40
1
 10
185.897068
 20
120.741705
 30
0.0
 10
184.849606
 20
119.723690
 30
0.0
 10
184.680146
 20
119.424955
 30
0.0
 10
184.959315
 20
119.088580
 30
0.0
  0
SPLINE
  5
4e9
100
AcDbEntity
  8
0
 62
7
100
AcDbSpline
 70
8
 71
3
 72
8
 73
4
 74
0
 40
0
 40
0
 40
0
 40
0
 40
1
 40
1
 40
1
 40
1
 10
184.959315
 20
119.088580
 30
0.0
 10
185.375042
 20
118.587658
 30
0.0
 10
185.893083
 20
118.582127
 30
0.0
 10
195.108723
 20
118.980218
 30
0.0
  0
LWPOLYLINE
  5
4ea
100
AcDbEntity
  8
0
 62
7
100
AcDbPolyline
 90
2
 70
1
 10
240.148082
 20
141.708056
 30
0.0
 10
240.148082
 20
141.708056
 30
0.0
  0
SPLINE
  5
4eb
100
AcDbEntity
  8
0
 62
7
100
AcDbSpline
 70
8
 71
3
 72
8
 73
4
 74
0
 40
0
 40
0
 40
0
 40
0
 40
1
 40
1
 40
1
 40
1
 10
201.780679
 20
125.804120
 30
0.0
 10
201.360078
 20
126.477533
 30
0.0
 10
201.355523
 20
126.556790
 30
0.0
 10
200.609014
 20
146.194676
 30
0.0
  0
SPLINE
  5
4ec
100
AcDbEntity
  8
0
 62
7
100
AcDbSpline
 70
8
 71
3
 72
8
 73
4
 74
0
 40
0
 40
0
 40
0
 40
0
 40
1
 40
1
 40
1
 40
1
 10
200.609014
 20
146.194676
 30
0.0
 10
200.384791
 20
152.093120
 30
0.0
 10
200.003774
 20
162.062620
 30
0.0
 10
199.762310
 20
168.349120
 30
0.0
  0
SPLINE
  5
4ed
100
AcDbEntity
  8
0
 62
7
100
AcDbSpline
 70
8
 71
3
 72
8
 73
4
 74
0
 40
0
 40
0
 40
0
 40
0
 40
1
 40
1
 40
1
 40
1
 10
199.762310
 20
168.349120
 30
0.0
 10
198.672024
 20
196.734557
 30
0.0
 10
198.572563
 20
200.117797
 30
0.0
 10
198.814744
 20
200.580865
 30
0.0
  0
SPLINE
  5
4ee
100
AcDbEntity
  8
0
 62
7
100
AcDbSpline
 70
8
 71
3
 72
8
 73
4
 74
0
 40
0
 40
0
 40
0
 40
0
 40
1
 40
1
 40
1
 40
1
 10
198.814744
 20
200.580865
 30
0.0
 10
199.128247
 20
201.180302
 30
0.0
 10
200.698267
 20
201.495183
 30
0.0
 10
202.080597
 20
201.235855
 30
0.0
  0
SPLINE
  5
4ef
100
AcDbEntity
  8
0
 62
7
100
AcDbSpline
 70
8
 71
3
 72
8
 73
4
 74
0
 40
0
 40
0
 40
0
 40
0
 40
1
 40
1
 40
1
 40
1
 10
202.080597
 20
201.235855
 30
0.0
 10
206.123980
 20
200.477312
 30
0.0
 10
208.887994
 20
196.118325
 30
0.0
 10
210.185669
 20
188.453759
 30
0.0
  0
SPLINE
  5
4f0
100
AcDbEntity
  8
0
 62
7
100
AcDbSpline
 70
8
 71
3
 72
8
 73
4
 74
0
 40
0
 40
0
 40
0
 40
0
 40
1
 40
1
 40
1
 40
1
 10
210.185669
 20
188.453759
 30
0.0
 10
210.853407
 20
184.509833
 30
0.0
 10
210.853376
 20
184.510415
 30
0.0
 10
211.859673
 20
157.201342
 30
0.0
  0
SPLINE
  5
4f1
100
AcDbEntity
  8
0
 62
7
100
AcDbSpline
 70
8
 71
3
 72
8
 73
4
 74
0
 40
0
 40
0
 40
0
 40
0
 40
1
 40
1
 40
1
 40
1
 10
211.859673
 20
157.201342
 30
0.0
 10
212.330117
 20
144.434346
 30
0.0
 10
211.898809
 20
139.098974
 30
0.0
 10
209.877942
 20
132.687091
 30
0.0
  0
SPLINE
  5
4f2
100
AcDbEntity
  8
0
 62
7
100
AcDbSpline
 70
8
 71
3
 72
8
 73
4
 74
0
 40
0
 40
0
 40
0
 40
0
 40
1
 40
1
 40
1
 40
1
 10
209.877942
 20
132.687091
 30
0.0
 10
208.188842
 20
127.327841
 30
0.0
 10
206.344492
 20
125.169120
 30
0.0
 10
203.454799
 20
125.169120
 30
0.0
  0
SPLINE
  5
4f3
100
AcDbEntity
  8
0
 62
7
100
AcDbSpline
 70
8
 71
3
 72
8
 73
4
 74
0
 40
0
 40
0
 40
0
 40
0
 40
1
 40
1
 40
1
 40
1
 10
203.454799
 20
125.169120
 30
0.0
 10
202.435638
 20
125.169120
 30
0.0
 10
202.097084
 20
125.297534
 30
0.0
 10
201.780679
 20
125.804120
 30
0.0
  0
LWPOLYLINE
  5
4f4
100
AcDbEntity
  8
0
 62
7
100
AcDbPolyline
 90
2
 70
1
 10
195.108723
 20
118.980218
 30
0.0
 10
195.108723
 20
118.980218
 30
0.0
  0
SPLINE
  5
4f5
100
AcDbEntity
  8
0
 62
7
100
AcDbSpline
 70
8
 71
3
 72
8
 73
4
 74
0
 40
0
 40
0
 40
0
 40
0
 40
1
 40
1
 40
1
 40
1
 10
408.173710
 20
138.567716
 30
0.0
 10
410.290857
 20
139.131139
 30
0.0
 10
412.883491
 20
140.450288
 30
0.0
 10
414.363239
 20
141.716991
 30
0.0
  0
SPLINE
  5
4f6
100
AcDbEntity
  8
0
 62
7
100
AcDbSpline
 70
8
 71
3
 72
8
 73
4
 74
0
 40
0
 40
0
 40
0
 40
0
 40
1
 40
1
 40
1
 40
1
 10
414.363239
 20
141.716991
 30
0.0
 10
417.535360
 20
144.432418
 30
0.0
 10
417.780668
 20
149.059511
 30
0.0
 10
414.887241
 20
151.599999
 30
0.0
  0
SPLINE
  5
4f7
100
AcDbEntity
  8
0
 62
7
100
AcDbSpline
 70
8
 71
3
 72
8
 73
4
 74
0
 40
0
 40
0
 40
0
 40
0
 40
1
 40
1
 40
1
 40
1
 10
414.887241
 20
151.599999
 30
0.0
 10
413.538755
 20
152.783977
 30
0.0
 10
412.123664
 20
153.215777
 30
0.0
 10
410.231900
 20
153.020530
 30
0.0
  0
SPLINE
  5
4f8
100
AcDbEntity
  8
0
 62
7
100
AcDbSpline
 70
8
 71
3
 72
8
 73
4
 74
0
 40
0
 40
0
 40
0
 40
0
 40
1
 40
1
 40
1
 40
1
 10
410.231900
 20
153.020530
 30
0.0
 10
407.570884
 20
152.745889
 30
0.0
 10
405.434179
 20
150.713559
 30
0.0
 10
404.935013
 20
147.982361
 30
0.0
  0
SPLINE
  5
4f9
100
AcDbEntity
  8
0
 62
7
100
AcDbSpline
 70
8
 71
3
 72
8
 73
4
 74
0
 40
0
 40
0
 40
0
 40
0
 40
1
 40
1
 40
1
 40
1
 10
404.935013
 20
147.982361
 30
0.0
 10
404.683242
 20
146.604764
 30
0.0
 10
405.426785
 20
144.100595
 30
0.0
 10
406.343217
 20
143.239637
 30
0.0
  0
SPLINE
  5
4fa
100
AcDbEntity
  8
0
 62
7
100
AcDbSpline
 70
8
 71
3
 72
8
 73
4
 74
0
 40
0
 40
0
 40
0
 40
0
 40
1
 40
1
 40
1
 40
1
 10
406.343217
 20
143.239637
 30
0.0
 10
407.418568
 20
142.229391
 30
0.0
 10
407.289508
 20
141.318087
 30
0.0
 10
405.999273
 20
140.811210
 30
0.0
  0
SPLINE
  5
4fb
100
AcDbEntity
  8
0
 62
7
100
AcDbSpline
 70
8
 71
3
 72
8
 73
4
 74
0
 40
0
 40
0
 40
0
 40
0
 40
1
 40
1
 40
1
 40
1
 10
405.999273
 20
140.811210
 30
0.0
 10
404.348244
 20
140.162585
 30
0.0
 10
404.101018
 20
139.973744
 30
0.0
 10
403.999023
 20
139.283324
 30
0.0
  0
SPLINE
  5
4fc
100
AcDbEntity
  8
0
 62
7
100
AcDbSpline
 70
8
 71
3
 72
8
 73
4
 74
0
 40
0
 40
0
 40
0
 40
0
 40
1
 40
1
 40
1
 40
1
 10
403.999023
 20
139.283324
 30
0.0
 10
403.822606
 20
138.089081
 30
0.0
 10
405.375138
 20
137.822954
 30
0.0
 10
408.173710
 20
138.567716
 30
0.0
  0
LWPOLYLINE
  5
4fd
100
AcDbEntity
  8
0
 62
7
100
AcDbPolyline
 90
2
 70
1
 10
201.780679
 20
125.804120
 30
0.0
 10
201.780679
 20
125.804120
 30
0.0
  0
SPLINE
  5
4fe
100
AcDbEntity
  8
0
 62
7
100
AcDbSpline
 70
8
 71
3
 72
8
 73
4
 74
0
 40
0
 40
0
 40
0
 40
0
 40
1
 40
1
 40
1
 40
1
 10
105.654207
 20
24.114986
 30
0.0
 10
105.240864
 20
24.887315
 30
0.0
 10
105.279472
 20
24.980223
 30
0.0
 10
106.013673
 20
24.980223
 30
0.0
  0
SPLINE
  5
4ff
100
AcDbEntity
  8
0
 62
7
100
AcDbSpline
 70
8
 71
3
 72
8
 73
4
 74
0
 40
0
 40
0
 40
0
 40
0
 40
1
 40
1
 40
1
 40
1
 10
106.013673
 20
24.980223
 30
0.0
 10
106.851591
 20
24.980223
 30
0.0
 10
107.765229
 20
24.314912
 30
0.0
 10
107.505161
 20
23.894147
 30
0.0
  0
SPLINE
  5
500
100
AcDbEntity
  8
0
 62
7
100
AcDbSpline
 70
8
 71
3
 72
8
 73
4
 74
0
 40
0
 40
0
 40
0
 40
0
 40
1
 40
1
 40
1
 40
1
 10
107.505161
 20
23.894147
 30
0.0
 10
107.182553
 20
23.372149
 30
0.0
 10
105.974614
 20
23.516280
 30
0.0
 10
105.654207
 20
24.114986
 30
0.0
  0
LWPOLYLINE
  5
501
100
AcDbEntity
  8
0
 62
7
100
AcDbPolyline
 90
2
 70
1
 10
408.173710
 20
138.567716
 30
0.0
 10
408.173710
 20
138.567716
 30
0.0
  0
SPLINE
  5
502
100
AcDbEntity
  8
0
 62
7
100
AcDbSpline
 70
8
 71
3
 72
8
 73
4
 74
0
 40
0
 40
0
 40
0
 40
0
 40
1
 40
1
 40
1
 40
1
 10
328.317606
 20
23.982511
 30
0.0
 10
328.317606
 20
24.493248
 30
0.0
 10
329.296748
 20
25.046319
 30
0.0
 10
329.990309
 20
24.927391
 30
0.0
  0
SPLINE
  5
503
100
AcDbEntity
  8
0
 62
7
100
AcDbSpline
 70
8
 71
3
 72
8
 73
4
 74
0
 40
0
 40
0
 40
0
 40
0
 40
1
 40
1
 40
1
 40
1
 10
329.990309
 20
24.927391
 30
0.0
 10
330.398176
 20
24.857428
 30
0.0
 10
330.455637
 20
24.707286
 30
0.0
 10
330.267084
 20
24.204112
 30
0.0
  0
SPLINE
  5
504
100
AcDbEntity
  8
0
 62
7
100
AcDbSpline
 70
8
 71
3
 72
8
 73
4
 74
0
 40
0
 40
0
 40
0
 40
0
 40
1
 40
1
 40
1
 40
1
 10
330.267084
 20
24.204112
 30
0.0
 10
330.092248
 20
23.737514
 30
0.0
 10
329.802180
 20
23.569112
 30
0.0
 10
329.173360
 20
23.569112
 30
0.0
  0
SPLINE
  5
505
100
AcDbEntity
  8
0
 62
7
100
AcDbSpline
 70
8
 71
3
 72
8
 73
4
 74
0
 40
0
 40
0
 40
0
 40
0
 40
1
 40
1
 40
1
 40
1
 10
329.173360
 20
23.569112
 30
0.0
 10
328.609988
 20
23.569112
 30
0.0
 10
328.317606
 20
23.710336
 30
0.0
 10
328.317606
 20
23.982511
 30
0.0
  0
LWPOLYLINE
  5
506
100
AcDbEntity
  8
0
 62
7
100
AcDbPolyline
 90
2
 70
1
 10
105.654207
 20
24.114986
 30
0.0
 10
105.654207
 20
24.114986
 30
0.0
  0
SPLINE
  5
507
100
AcDbEntity
  8
0
 62
7
100
AcDbSpline
 70
8
 71
3
 72
8
 73
4
 74
0
 40
0
 40
0
 40
0
 40
0
 40
1
 40
1
 40
1
 40
1
 10
103.010208
 20
24.603908
 30
0.0
 10
102.685455
 20
24.928661
 30
0.0
 10
102.804666
 20
25.262445
 30
0.0
 10
103.245384
 20
25.262445
 30
0.0
  0
SPLINE
  5
508
100
AcDbEntity
  8
0
 62
7
100
AcDbSpline
 70
8
 71
3
 72
8
 73
4
 74
0
 40
0
 40
0
 40
0
 40
0
 40
1
 40
1
 40
1
 40
1
 10
103.245384
 20
25.262445
 30
0.0
 10
103.478217
 20
25.262445
 30
0.0
 10
103.668717
 20
25.071945
 30
0.0
 10
103.668717
 20
24.839112
 30
0.0
  0
SPLINE
  5
509
100
AcDbEntity
  8
0
 62
7
100
AcDbSpline
 70
8
 71
3
 72
8
 73
4
 74
0
 40
0
 40
0
 40
0
 40
0
 40
1
 40
1
 40
1
 40
1
 10
103.668717
 20
24.839112
 30
0.0
 10
103.668717
 20
24.398393
 30
0.0
 10
103.334933
 20
24.279183
 30
0.0
 10
103.010208
 20
24.603908
 30
0.0
  0
LWPOLYLINE
  5
50a
100
AcDbEntity
  8
0
 62
7
100
AcDbPolyline
 90
2
 70
1
 10
328.317606
 20
23.982511
 30
0.0
 10
328.317606
 20
23.982511
 30
0.0
  0
SPLINE
  5
50b
100
AcDbEntity
  8
0
 62
7
100
AcDbSpline
 70
8
 71
3
 72
8
 73
4
 74
0
 40
0
 40
0
 40
0
 40
0
 40
1
 40
1
 40
1
 40
1
 10
332.047935
 20
24.741604
 30
0.0
 10
332.117474
 20
24.950448
 30
0.0
 10
332.400741
 20
25.165219
 30
0.0
 10
332.677375
 20
25.218842
 30
0.0
  0
SPLINE
  5
50c
100
AcDbEntity
  8
0
 62
7
100
AcDbSpline
 70
8
 71
3
 72
8
 73
4
 74
0
 40
0
 40
0
 40
0
 40
0
 40
1
 40
1
 40
1
 40
1
 10
332.677375
 20
25.218842
 30
0.0
 10
332.999136
 20
25.281213
 30
0.0
 10
333.134829
 20
25.179500
 30
0.0
 10
333.053944
 20
24.936619
 30
0.0
  0
SPLINE
  5
50d
100
AcDbEntity
  8
0
 62
7
100
AcDbSpline
 70
8
 71
3
 72
8
 73
4
 74
0
 40
0
 40
0
 40
0
 40
0
 40
1
 40
1
 40
1
 40
1
 10
333.053944
 20
24.936619
 30
0.0
 10
332.984404
 20
24.727775
 30
0.0
 10
332.701138
 20
24.513004
 30
0.0
 10
332.424504
 20
24.459382
 30
0.0
  0
SPLINE
  5
50e
100
AcDbEntity
  8
0
 62
7
100
AcDbSpline
 70
8
 71
3
 72
8
 73
4
 74
0
 40
0
 40
0
 40
0
 40
0
 40
1
 40
1
 40
1
 40
1
 10
332.424504
 20
24.459382
 30
0.0
 10
332.102742
 20
24.397010
 30
0.0
 10
331.967050
 20
24.498695
 30
0.0
 10
332.047935
 20
24.741604
 30
0.0
  0
LWPOLYLINE
  5
50f
100
AcDbEntity
  8
0
 62
7
100
AcDbPolyline
 90
2
 70
1
 10
103.010208
 20
24.603908
 30
0.0
 10
103.010208
 20
24.603908
 30
0.0
  0
SPLINE
  5
510
100
AcDbEntity
  8
0
 62
7
100
AcDbSpline
 70
8
 71
3
 72
8
 73
4
 74
0
 40
0
 40
0
 40
0
 40
0
 40
1
 40
1
 40
1
 40
1
 10
99.422402
 20
27.990320
 30
0.0
 10
97.877320
 20
29.666534
 30
0.0
 10
96.503829
 20
31.887425
 30
0.0
 10
94.751200
 20
35.543445
 30
0.0
  0
SPLINE
  5
511
100
AcDbEntity
  8
0
 62
7
100
AcDbSpline
 70
8
 71
3
 72
8
 73
4
 74
0
 40
0
 40
0
 40
0
 40
0
 40
1
 40
1
 40
1
 40
1
 10
94.751200
 20
35.543445
 30
0.0
 10
91.031907
 20
43.301960
 30
0.0
 10
90.762159
 20
50.318710
 30
0.0
 10
94.068392
 20
53.305693
 30
0.0
  0
SPLINE
  5
512
100
AcDbEntity
  8
0
 62
7
100
AcDbSpline
 70
8
 71
3
 72
8
 73
4
 74
0
 40
0
 40
0
 40
0
 40
0
 40
1
 40
1
 40
1
 40
1
 10
94.068392
 20
53.305693
 30
0.0
 10
95.297498
 20
54.416125
 30
0.0
 10
96.517912
 20
54.748752
 30
0.0
 10
98.621173
 20
54.546681
 30
0.0
  0
SPLINE
  5
513
100
AcDbEntity
  8
0
 62
7
100
AcDbSpline
 70
8
 71
3
 72
8
 73
4
 74
0
 40
0
 40
0
 40
0
 40
0
 40
1
 40
1
 40
1
 40
1
 10
98.621173
 20
54.546681
 30
0.0
 10
100.512767
 20
54.364901
 30
0.0
 10
100.651000
 20
54.174204
 30
0.0
 10
100.224646
 20
52.334171
 30
0.0
  0
SPLINE
  5
514
100
AcDbEntity
  8
0
 62
7
100
AcDbSpline
 70
8
 71
3
 72
8
 73
4
 74
0
 40
0
 40
0
 40
0
 40
0
 40
1
 40
1
 40
1
 40
1
 10
100.224646
 20
52.334171
 30
0.0
 10
100.004316
 20
51.383308
 30
0.0
 10
99.875425
 20
48.825952
 30
0.0
 10
99.884399
 20
45.582456
 30
0.0
  0
SPLINE
  5
515
100
AcDbEntity
  8
0
 62
7
100
AcDbSpline
 70
8
 71
3
 72
8
 73
4
 74
0
 40
0
 40
0
 40
0
 40
0
 40
1
 40
1
 40
1
 40
1
 10
99.884399
 20
45.582456
 30
0.0
 10
99.901333
 20
39.407011
 30
0.0
 10
100.430302
 20
35.417207
 30
0.0
 10
101.854621
 20
30.718235
 30
0.0
  0
SPLINE
  5
516
100
AcDbEntity
  8
0
 62
7
100
AcDbSpline
 70
8
 71
3
 72
8
 73
4
 74
0
 40
0
 40
0
 40
0
 40
0
 40
1
 40
1
 40
1
 40
1
 10
101.854621
 20
30.718235
 30
0.0
 10
102.393440
 20
28.940562
 30
0.0
 10
102.769218
 20
27.380833
 30
0.0
 10
102.689688
 20
27.252140
 30
0.0
  0
SPLINE
  5
517
100
AcDbEntity
  8
0
 62
7
100
AcDbSpline
 70
8
 71
3
 72
8
 73
4
 74
0
 40
0
 40
0
 40
0
 40
0
 40
1
 40
1
 40
1
 40
1
 10
102.689688
 20
27.252140
 30
0.0
 10
102.610130
 20
27.123446
 30
0.0
 10
102.092760
 20
26.965346
 30
0.0
 10
101.539943
 20
26.900801
 30
0.0
  0
SPLINE
  5
518
100
AcDbEntity
  8
0
 62
7
100
AcDbSpline
 70
8
 71
3
 72
8
 73
4
 74
0
 40
0
 40
0
 40
0
 40
0
 40
1
 40
1
 40
1
 40
1
 10
101.539943
 20
26.900801
 30
0.0
 10
100.651225
 20
26.797056
 30
0.0
 10
100.406059
 20
26.923097
 30
0.0
 10
99.422402
 20
27.990320
 30
0.0
  0
LWPOLYLINE
  5
519
100
AcDbEntity
  8
0
 62
7
100
AcDbPolyline
 90
2
 70
1
 10
332.047935
 20
24.741604
 30
0.0
 10
332.047935
 20
24.741604
 30
0.0
  0
SPLINE
  5
51a
100
AcDbEntity
  8
0
 62
7
100
AcDbSpline
 70
8
 71
3
 72
8
 73
4
 74
0
 40
0
 40
0
 40
0
 40
0
 40
1
 40
1
 40
1
 40
1
 10
333.265187
 20
27.223946
 30
0.0
 10
333.174001
 20
27.371463
 30
0.0
 10
333.542188
 20
29.015690
 30
0.0
 10
334.083350
 20
30.877832
 30
0.0
  0
SPLINE
  5
51b
100
AcDbEntity
  8
0
 62
7
100
AcDbSpline
 70
8
 71
3
 72
8
 73
4
 74
0
 40
0
 40
0
 40
0
 40
0
 40
1
 40
1
 40
1
 40
1
 10
334.083350
 20
30.877832
 30
0.0
 10
334.624482
 20
32.739990
 30
0.0
 10
335.283556
 20
35.762562
 30
0.0
 10
335.547942
 20
37.594664
 30
0.0
  0
SPLINE
  5
51c
100
AcDbEntity
  8
0
 62
7
100
AcDbSpline
 70
8
 71
3
 72
8
 73
4
 74
0
 40
0
 40
0
 40
0
 40
0
 40
1
 40
1
 40
1
 40
1
 10
335.547942
 20
37.594664
 30
0.0
 10
336.139762
 20
41.695692
 30
0.0
 10
336.213027
 20
49.776476
 30
0.0
 10
335.680332
 20
52.195967
 30
0.0
  0
SPLINE
  5
51d
100
AcDbEntity
  8
0
 62
7
100
AcDbSpline
 70
8
 71
3
 72
8
 73
4
 74
0
 40
0
 40
0
 40
0
 40
0
 40
1
 40
1
 40
1
 40
1
 10
335.680332
 20
52.195967
 30
0.0
 10
335.342202
 20
53.731651
 30
0.0
 10
335.353773
 20
53.901408
 30
0.0
 10
335.819665
 20
54.242078
 30
0.0
  0
SPLINE
  5
51e
100
AcDbEntity
  8
0
 62
7
100
AcDbSpline
 70
8
 71
3
 72
8
 73
4
 74
0
 40
0
 40
0
 40
0
 40
0
 40
1
 40
1
 40
1
 40
1
 10
335.819665
 20
54.242078
 30
0.0
 10
336.482238
 20
54.726569
 30
0.0
 10
339.368525
 20
54.720558
 30
0.0
 10
340.537179
 20
54.232200
 30
0.0
  0
SPLINE
  5
51f
100
AcDbEntity
  8
0
 62
7
100
AcDbSpline
 70
8
 71
3
 72
8
 73
4
 74
0
 40
0
 40
0
 40
0
 40
0
 40
1
 40
1
 40
1
 40
1
 10
340.537179
 20
54.232200
 30
0.0
 10
344.180753
 20
52.709809
 30
0.0
 10
345.185633
 20
46.640028
 30
0.0
 10
342.911091
 20
39.892743
 30
0.0
  0
SPLINE
  5
520
100
AcDbEntity
  8
0
 62
7
100
AcDbSpline
 70
8
 71
3
 72
8
 73
4
 74
0
 40
0
 40
0
 40
0
 40
0
 40
1
 40
1
 40
1
 40
1
 10
342.911091
 20
39.892743
 30
0.0
 10
341.773341
 20
36.517676
 30
0.0
 10
340.423302
 20
33.689414
 30
0.0
 10
338.554399
 20
30.765705
 30
0.0
  0
SPLINE
  5
521
100
AcDbEntity
  8
0
 62
7
100
AcDbSpline
 70
8
 71
3
 72
8
 73
4
 74
0
 40
0
 40
0
 40
0
 40
0
 40
1
 40
1
 40
1
 40
1
 10
338.554399
 20
30.765705
 30
0.0
 10
336.657047
 20
27.797506
 30
0.0
 10
335.758536
 20
26.955694
 30
0.0
 10
334.487802
 20
26.955694
 30
0.0
  0
SPLINE
  5
522
100
AcDbEntity
  8
0
 62
7
100
AcDbSpline
 70
8
 71
3
 72
8
 73
4
 74
0
 40
0
 40
0
 40
0
 40
0
 40
1
 40
1
 40
1
 40
1
 10
334.487802
 20
26.955694
 30
0.0
 10
333.906509
 20
26.955694
 30
0.0
 10
333.356345
 20
27.076372
 30
0.0
 10
333.265187
 20
27.223889
 30
0.0
  0
LWPOLYLINE
  5
523
100
AcDbEntity
  8
0
 62
7
100
AcDbPolyline
 90
2
 70
1
 10
99.422402
 20
27.990320
 30
0.0
 10
99.422402
 20
27.990320
 30
0.0
  0
SPLINE
  5
524
100
AcDbEntity
  8
0
 62
7
100
AcDbSpline
 70
8
 71
3
 72
8
 73
4
 74
0
 40
0
 40
0
 40
0
 40
0
 40
1
 40
1
 40
1
 40
1
 10
112.558717
 20
54.518515
 30
0.0
 10
110.540828
 20
55.370008
 30
0.0
 10
107.810328
 20
56.355330
 30
0.0
 10
106.490939
 20
56.708136
 30
0.0
  0
SPLINE
  5
525
100
AcDbEntity
  8
0
 62
7
100
AcDbSpline
 70
8
 71
3
 72
8
 73
4
 74
0
 40
0
 40
0
 40
0
 40
0
 40
1
 40
1
 40
1
 40
1
 10
106.490939
 20
56.708136
 30
0.0
 10
105.053610
 20
57.092466
 30
0.0
 10
104.061204
 20
57.508264
 30
0.0
 10
104.015117
 20
57.745472
 30
0.0
  0
SPLINE
  5
526
100
AcDbEntity
  8
0
 62
7
100
AcDbSpline
 70
8
 71
3
 72
8
 73
4
 74
0
 40
0
 40
0
 40
0
 40
0
 40
1
 40
1
 40
1
 40
1
 10
104.015117
 20
57.745472
 30
0.0
 10
103.886423
 20
58.407848
 30
0.0
 10
105.618844
 20
60.235632
 30
0.0
 10
107.074547
 20
60.973276
 30
0.0
  0
SPLINE
  5
527
100
AcDbEntity
  8
0
 62
7
100
AcDbSpline
 70
8
 71
3
 72
8
 73
4
 74
0
 40
0
 40
0
 40
0
 40
0
 40
1
 40
1
 40
1
 40
1
 10
107.074547
 20
60.973276
 30
0.0
 10
110.429266
 20
62.673241
 30
0.0
 10
113.980468
 20
61.376797
 30
0.0
 10
115.774555
 20
57.797175
 30
0.0
  0
SPLINE
  5
528
100
AcDbEntity
  8
0
 62
7
100
AcDbSpline
 70
8
 71
3
 72
8
 73
4
 74
0
 40
0
 40
0
 40
0
 40
0
 40
1
 40
1
 40
1
 40
1
 10
115.774555
 20
57.797175
 30
0.0
 10
116.475764
 20
56.398087
 30
0.0
 10
117.269768
 20
53.518771
 30
0.0
 10
117.051695
 20
53.165908
 30
0.0
  0
SPLINE
  5
529
100
AcDbEntity
  8
0
 62
7
100
AcDbSpline
 70
8
 71
3
 72
8
 73
4
 74
0
 40
0
 40
0
 40
0
 40
0
 40
1
 40
1
 40
1
 40
1
 10
117.051695
 20
53.165908
 30
0.0
 10
116.808052
 20
52.771729
 30
0.0
 10
116.425331
 20
52.886932
 30
0.0
 10
112.558717
 20
54.518515
 30
0.0
  0
LWPOLYLINE
  5
52a
100
AcDbEntity
  8
0
 62
7
100
AcDbPolyline
 90
2
 70
1
 10
333.265187
 20
27.223889
 30
0.0
 10
333.265187
 20
27.223946
 30
0.0
  0
SPLINE
  5
52b
100
AcDbEntity
  8
0
 62
7
100
AcDbSpline
 70
8
 71
3
 72
8
 73
4
 74
0
 40
0
 40
0
 40
0
 40
0
 40
1
 40
1
 40
1
 40
1
 10
318.865476
 20
54.080788
 30
0.0
 10
319.874477
 20
60.140410
 30
0.0
 10
324.306071
 20
63.191006
 30
0.0
 10
328.827074
 20
60.938111
 30
0.0
  0
SPLINE
  5
52c
100
AcDbEntity
  8
0
 62
7
100
AcDbSpline
 70
8
 71
3
 72
8
 73
4
 74
0
 40
0
 40
0
 40
0
 40
0
 40
1
 40
1
 40
1
 40
1
 10
328.827074
 20
60.938111
 30
0.0
 10
330.353472
 20
60.177466
 30
0.0
 10
332.055498
 20
58.425797
 30
0.0
 10
331.922289
 20
57.752612
 30
0.0
  0
SPLINE
  5
52d
100
AcDbEntity
  8
0
 62
7
100
AcDbSpline
 70
8
 71
3
 72
8
 73
4
 74
0
 40
0
 40
0
 40
0
 40
0
 40
1
 40
1
 40
1
 40
1
 10
331.922289
 20
57.752612
 30
0.0
 10
331.877783
 20
57.527681
 30
0.0
 10
330.953420
 20
57.132570
 30
0.0
 10
329.728717
 20
56.814985
 30
0.0
  0
SPLINE
  5
52e
100
AcDbEntity
  8
0
 62
7
100
AcDbSpline
 70
8
 71
3
 72
8
 73
4
 74
0
 40
0
 40
0
 40
0
 40
0
 40
1
 40
1
 40
1
 40
1
 10
329.728717
 20
56.814985
 30
0.0
 10
328.564550
 20
56.513092
 30
0.0
 10
325.897550
 20
55.563979
 30
0.0
 10
323.802050
 20
54.705882
 30
0.0
  0
SPLINE
  5
52f
100
AcDbEntity
  8
0
 62
7
100
AcDbSpline
 70
8
 71
3
 72
8
 73
4
 74
0
 40
0
 40
0
 40
0
 40
0
 40
1
 40
1
 40
1
 40
1
 10
323.802050
 20
54.705882
 30
0.0
 10
321.706550
 20
53.847757
 30
0.0
 10
319.692189
 20
53.077432
 30
0.0
 10
319.325667
 20
52.994035
 30
0.0
  0
SPLINE
  5
530
100
AcDbEntity
  8
0
 62
7
100
AcDbSpline
 70
8
 71
3
 72
8
 73
4
 74
0
 40
0
 40
0
 40
0
 40
0
 40
1
 40
1
 40
1
 40
1
 10
319.325667
 20
52.994035
 30
0.0
 10
318.681439
 20
52.847477
 30
0.0
 10
318.666142
 20
52.883602
 30
0.0
 10
318.865476
 20
54.080788
 30
0.0
  0
LWPOLYLINE
  5
531
100
AcDbEntity
  8
0
 62
7
100
AcDbPolyline
 90
2
 70
1
 10
112.558717
 20
54.518515
 30
0.0
 10
112.558717
 20
54.518515
 30
0.0
  0
SPLINE
  5
532
100
AcDbEntity
  8
0
 62
7
100
AcDbSpline
 70
8
 71
3
 72
8
 73
4
 74
0
 40
0
 40
0
 40
0
 40
0
 40
1
 40
1
 40
1
 40
1
 10
131.326495
 20
63.678037
 30
0.0
 10
126.954421
 20
64.178643
 30
0.0
 10
123.988717
 20
65.566245
 30
0.0
 10
123.988717
 20
67.111299
 30
0.0
  0
SPLINE
  5
533
100
AcDbEntity
  8
0
 62
7
100
AcDbSpline
 70
8
 71
3
 72
8
 73
4
 74
0
 40
0
 40
0
 40
0
 40
0
 40
1
 40
1
 40
1
 40
1
 10
123.988717
 20
67.111299
 30
0.0
 10
123.988717
 20
69.327355
 30
0.0
 10
129.837857
 20
68.846042
 30
0.0
 10
133.094674
 20
66.361970
 30
0.0
  0
SPLINE
  5
534
100
AcDbEntity
  8
0
 62
7
100
AcDbSpline
 70
8
 71
3
 72
8
 73
4
 74
0
 40
0
 40
0
 40
0
 40
0
 40
1
 40
1
 40
1
 40
1
 10
133.094674
 20
66.361970
 30
0.0
 10
133.746692
 20
65.864667
 30
0.0
 10
134.472849
 20
65.110146
 30
0.0
 10
134.708336
 20
64.685260
 30
0.0
  0
SPLINE
  5
535
100
AcDbEntity
  8
0
 62
7
100
AcDbSpline
 70
8
 71
3
 72
8
 73
4
 74
0
 40
0
 40
0
 40
0
 40
0
 40
1
 40
1
 40
1
 40
1
 10
134.708336
 20
64.685260
 30
0.0
 10
135.088602
 20
63.999121
 30
0.0
 10
135.089138
 20
63.882451
 30
0.0
 10
134.713133
 20
63.641913
 30
0.0
  0
SPLINE
  5
536
100
AcDbEntity
  8
0
 62
7
100
AcDbSpline
 70
8
 71
3
 72
8
 73
4
 74
0
 40
0
 40
0
 40
0
 40
0
 40
1
 40
1
 40
1
 40
1
 10
134.713133
 20
63.641913
 30
0.0
 10
134.241822
 20
63.340415
 30
0.0
 10
134.278652
 20
63.340020
 30
0.0
 10
131.326467
 20
63.678037
 30
0.0
  0
LWPOLYLINE
  5
537
100
AcDbEntity
  8
0
 62
7
100
AcDbPolyline
 90
2
 70
1
 10
318.865476
 20
54.080788
 30
0.0
 10
318.865476
 20
54.080788
 30
0.0
  0
SPLINE
  5
538
100
AcDbEntity
  8
0
 62
7
100
AcDbSpline
 70
8
 71
3
 72
8
 73
4
 74
0
 40
0
 40
0
 40
0
 40
0
 40
1
 40
1
 40
1
 40
1
 10
301.222325
 20
63.649081
 30
0.0
 10
300.173446
 20
64.305332
 30
0.0
 10
302.786401
 20
66.801560
 30
0.0
 10
305.639668
 20
67.869094
 30
0.0
  0
SPLINE
  5
539
100
AcDbEntity
  8
0
 62
7
100
AcDbSpline
 70
8
 71
3
 72
8
 73
4
 74
0
 40
0
 40
0
 40
0
 40
0
 40
1
 40
1
 40
1
 40
1
 10
305.639668
 20
67.869094
 30
0.0
 10
308.602606
 20
68.977671
 30
0.0
 10
311.948717
 20
68.611513
 30
0.0
 10
311.948717
 20
67.178693
 30
0.0
  0
SPLINE
  5
53a
100
AcDbEntity
  8
0
 62
7
100
AcDbSpline
 70
8
 71
3
 72
8
 73
4
 74
0
 40
0
 40
0
 40
0
 40
0
 40
1
 40
1
 40
1
 40
1
 10
311.948717
 20
67.178693
 30
0.0
 10
311.948717
 20
66.354463
 30
0.0
 10
311.446728
 20
65.776642
 30
0.0
 10
310.132758
 20
65.088330
 30
0.0
  0
SPLINE
  5
53b
100
AcDbEntity
  8
0
 62
7
100
AcDbSpline
 70
8
 71
3
 72
8
 73
4
 74
0
 40
0
 40
0
 40
0
 40
0
 40
1
 40
1
 40
1
 40
1
 10
310.132758
 20
65.088330
 30
0.0
 10
308.189404
 20
64.070354
 30
0.0
 10
302.116772
 20
63.089491
 30
0.0
 10
301.222325
 20
63.649081
 30
0.0
  0
LWPOLYLINE
  5
53c
100
AcDbEntity
  8
0
 62
7
100
AcDbPolyline
 90
2
 70
1
 10
131.326467
 20
63.678037
 30
0.0
 10
131.326495
 20
63.678037
 30
0.0
  0
SPLINE
  5
53d
100
AcDbEntity
  8
0
 62
7
100
AcDbSpline
 70
8
 71
3
 72
8
 73
4
 74
0
 40
0
 40
0
 40
0
 40
0
 40
1
 40
1
 40
1
 40
1
 10
146.481292
 20
74.122932
 30
0.0
 10
144.470882
 20
74.381456
 30
0.0
 10
143.264354
 20
74.857158
 30
0.0
 10
142.605478
 20
75.651052
 30
0.0
  0
SPLINE
  5
53e
100
AcDbEntity
  8
0
 62
7
100
AcDbSpline
 70
8
 71
3
 72
8
 73
4
 74
0
 40
0
 40
0
 40
0
 40
0
 40
1
 40
1
 40
1
 40
1
 10
142.605478
 20
75.651052
 30
0.0
 10
142.265428
 20
76.060802
 30
0.0
 10
142.284676
 20
76.175684
 30
0.0
 10
142.750540
 20
76.516326
 30
0.0
  0
SPLINE
  5
53f
100
AcDbEntity
  8
0
 62
7
100
AcDbSpline
 70
8
 71
3
 72
8
 73
4
 74
0
 40
0
 40
0
 40
0
 40
0
 40
1
 40
1
 40
1
 40
1
 10
142.750540
 20
76.516326
 30
0.0
 10
144.002732
 20
77.431954
 30
0.0
 10
147.661178
 20
76.691696
 30
0.0
 10
148.929062
 20
75.266158
 30
0.0
  0
SPLINE
  5
540
100
AcDbEntity
  8
0
 62
7
100
AcDbSpline
 70
8
 71
3
 72
8
 73
4
 74
0
 40
0
 40
0
 40
0
 40
0
 40
1
 40
1
 40
1
 40
1
 10
148.929062
 20
75.266158
 30
0.0
 10
149.482669
 20
74.643691
 30
0.0
 10
149.381746
 20
73.779253
 30
0.0
 10
148.762579
 20
73.840377
 30
0.0
  0
SPLINE
  5
541
100
AcDbEntity
  8
0
 62
7
100
AcDbSpline
 70
8
 71
3
 72
8
 73
4
 74
0
 40
0
 40
0
 40
0
 40
0
 40
1
 40
1
 40
1
 40
1
 10
148.762579
 20
73.840377
 30
0.0
 10
148.563669
 20
73.860019
 30
0.0
 10
147.537085
 20
73.987160
 30
0.0
 10
146.481292
 20
74.122932
 30
0.0
  0
LWPOLYLINE
  5
542
100
AcDbEntity
  8
0
 62
7
100
AcDbPolyline
 90
2
 70
1
 10
301.222325
 20
63.649081
 30
0.0
 10
301.222325
 20
63.649081
 30
0.0
  0
SPLINE
  5
543
100
AcDbEntity
  8
0
 62
7
100
AcDbSpline
 70
8
 71
3
 72
8
 73
4
 74
0
 40
0
 40
0
 40
0
 40
0
 40
1
 40
1
 40
1
 40
1
 10
286.604569
 20
74.052382
 30
0.0
 10
286.065186
 20
74.385743
 30
0.0
 10
287.259042
 20
75.745275
 30
0.0
 10
288.643201
 20
76.373934
 30
0.0
  0
SPLINE
  5
544
100
AcDbEntity
  8
0
 62
7
100
AcDbSpline
 70
8
 71
3
 72
8
 73
4
 74
0
 40
0
 40
0
 40
0
 40
0
 40
1
 40
1
 40
1
 40
1
 10
288.643201
 20
76.373934
 30
0.0
 10
289.771215
 20
76.886246
 30
0.0
 10
291.991401
 20
77.077127
 30
0.0
 10
292.875631
 20
76.737814
 30
0.0
  0
SPLINE
  5
545
100
AcDbEntity
  8
0
 62
7
100
AcDbSpline
 70
8
 71
3
 72
8
 73
4
 74
0
 40
0
 40
0
 40
0
 40
0
 40
1
 40
1
 40
1
 40
1
 10
292.875631
 20
76.737814
 30
0.0
 10
293.526464
 20
76.488070
 30
0.0
 10
293.421393
 20
75.575391
 30
0.0
 10
292.687050
 20
75.099573
 30
0.0
  0
SPLINE
  5
546
100
AcDbEntity
  8
0
 62
7
100
AcDbSpline
 70
8
 71
3
 72
8
 73
4
 74
0
 40
0
 40
0
 40
0
 40
0
 40
1
 40
1
 40
1
 40
1
 10
292.687050
 20
75.099573
 30
0.0
 10
291.564850
 20
74.372447
 30
0.0
 10
287.280237
 20
73.634789
 30
0.0
 10
286.604569
 20
74.052382
 30
0.0
  0
LWPOLYLINE
  5
547
100
AcDbEntity
  8
0
 62
7
100
AcDbPolyline
 90
2
 70
1
 10
146.481292
 20
74.122932
 30
0.0
 10
146.481292
 20
74.122932
 30
0.0
  0
SPLINE
  5
548
100
AcDbEntity
  8
0
 62
7
100
AcDbSpline
 70
8
 71
3
 72
8
 73
4
 74
0
 40
0
 40
0
 40
0
 40
0
 40
1
 40
1
 40
1
 40
1
 10
162.564916
 20
80.025895
 30
0.0
 10
161.170422
 20
80.260148
 30
0.0
 10
159.830939
 20
80.946015
 30
0.0
 10
159.830939
 20
81.425804
 30
0.0
  0
SPLINE
  5
549
100
AcDbEntity
  8
0
 62
7
100
AcDbSpline
 70
8
 71
3
 72
8
 73
4
 74
0
 40
0
 40
0
 40
0
 40
0
 40
1
 40
1
 40
1
 40
1
 10
159.830939
 20
81.425804
 30
0.0
 10
159.830939
 20
81.836274
 30
0.0
 10
161.124928
 20
82.073911
 30
0.0
 10
162.230562
 20
81.866489
 30
0.0
  0
SPLINE
  5
54a
100
AcDbEntity
  8
0
 62
7
100
AcDbSpline
 70
8
 71
3
 72
8
 73
4
 74
0
 40
0
 40
0
 40
0
 40
0
 40
1
 40
1
 40
1
 40
1
 10
162.230562
 20
81.866489
 30
0.0
 10
163.397026
 20
81.647662
 30
0.0
 10
164.808154
 20
80.532210
 30
0.0
 10
164.516181
 20
80.059790
 30
0.0
  0
SPLINE
  5
54b
100
AcDbEntity
  8
0
 62
7
100
AcDbSpline
 70
8
 71
3
 72
8
 73
4
 74
0
 40
0
 40
0
 40
0
 40
0
 40
1
 40
1
 40
1
 40
1
 10
164.516181
 20
80.059790
 30
0.0
 10
164.404534
 20
79.879142
 30
0.0
 10
164.225433
 20
79.746280
 30
0.0
 10
164.118177
 20
79.764537
 30
0.0
  0
SPLINE
  5
54c
100
AcDbEntity
  8
0
 62
7
100
AcDbSpline
 70
8
 71
3
 72
8
 73
4
 74
0
 40
0
 40
0
 40
0
 40
0
 40
1
 40
1
 40
1
 40
1
 10
164.118177
 20
79.764537
 30
0.0
 10
164.010921
 20
79.782797
 30
0.0
 10
163.311956
 20
79.900405
 30
0.0
 10
162.564916
 20
80.025895
 30
0.0
  0
LWPOLYLINE
  5
54d
100
AcDbEntity
  8
0
 62
7
100
AcDbPolyline
 90
2
 70
1
 10
286.604569
 20
74.052382
 30
0.0
 10
286.604569
 20
74.052382
 30
0.0
  0
SPLINE
  5
54e
100
AcDbEntity
  8
0
 62
7
100
AcDbSpline
 70
8
 71
3
 72
8
 73
4
 74
0
 40
0
 40
0
 40
0
 40
0
 40
1
 40
1
 40
1
 40
1
 10
271.449292
 20
80.014437
 30
0.0
 10
270.742636
 20
81.157812
 30
0.0
 10
274.915432
 20
82.660848
 30
0.0
 10
275.808609
 20
81.584656
 30
0.0
  0
SPLINE
  5
54f
100
AcDbEntity
  8
0
 62
7
100
AcDbSpline
 70
8
 71
3
 72
8
 73
4
 74
0
 40
0
 40
0
 40
0
 40
0
 40
1
 40
1
 40
1
 40
1
 10
275.808609
 20
81.584656
 30
0.0
 10
276.245518
 20
81.058190
 30
0.0
 10
275.302359
 20
80.414549
 30
0.0
 10
273.707606
 20
80.150899
 30
0.0
  0
SPLINE
  5
550
100
AcDbEntity
  8
0
 62
7
100
AcDbSpline
 70
8
 71
3
 72
8
 73
4
 74
0
 40
0
 40
0
 40
0
 40
0
 40
1
 40
1
 40
1
 40
1
 10
273.707606
 20
80.150899
 30
0.0
 10
273.086717
 20
80.048252
 30
0.0
 10
272.367163
 20
79.906690
 30
0.0
 10
272.108591
 20
79.836318
 30
0.0
  0
SPLINE
  5
551
100
AcDbEntity
  8
0
 62
7
100
AcDbSpline
 70
8
 71
3
 72
8
 73
4
 74
0
 40
0
 40
0
 40
0
 40
0
 40
1
 40
1
 40
1
 40
1
 10
272.108591
 20
79.836318
 30
0.0
 10
271.849991
 20
79.765948
 30
0.0
 10
271.553319
 20
79.846111
 30
0.0
 10
271.449292
 20
80.014437
 30
0.0
  0
LWPOLYLINE
  5
552
100
AcDbEntity
  8
0
 62
7
100
AcDbPolyline
 90
2
 70
1
 10
162.564916
 20
80.025895
 30
0.0
 10
162.564916
 20
80.025895
 30
0.0
  0
LWPOLYLINE
  5
553
100
AcDbEntity
  8
0
 62
7
100
AcDbPolyline
 90
2
 70
1
 10
271.449292
 20
80.014437
 30
0.0
 10
271.449292
 20
80.014437
 30
0.0
  0
ENDSEC
  0
SECTION
  2
OBJECTS
  0
DICTIONARY
  5
C
330
0
100
AcDbDictionary
  3
ACAD_GROUP
350
D
  3
ACAD_MLINESTYLE
350
17
  0
DICTIONARY
  5
D
330
C
100
AcDbDictionary
  0
DICTIONARY
  5
1A
330
C
100
AcDbDictionary
  0
DICTIONARY
  5
17
330
C
100
AcDbDictionary
  3
STANDARD
350
18
  0
DICTIONARY
  5
19
330
C
100
AcDbDictionary
  0
ENDSEC
  0
EOF
